  0
SECTION
  2
HEADER
  9
$ACADVER
  1
AC1027
  9
$ACADMAINTVER
 70
   125
  9
$DWGCODEPAGE
  3
ANSI_1252
  9
$REQUIREDVERSIONS
160
                 0
  9
$INSBASE
 10
0.0
 20
0.0
 30
0.0
  9
$EXTMIN
 10
1.000000000000000E+20
 20
1.000000000000000E+20
 30
1.000000000000000E+20
  9
$EXTMAX
 10
-1.000000000000000E+20
 20
-1.000000000000000E+20
 30
-1.000000000000000E+20
  9
$LIMMIN
 10
0.0
 20
0.0
  9
$LIMMAX
 10
12.0
 20
9.0
  9
$ORTHOMODE
 70
     0
  9
$REGENMODE
 70
     1
  9
$FILLMODE
 70
     1
  9
$QTEXTMODE
 70
     0
  9
$MIRRTEXT
 70
     0
  9
$LTSCALE
 40
1.0
  9
$ATTMODE
 70
     1
  9
$TEXTSIZE
 40
0.2
  9
$TRACEWID
 40
0.05
  9
$TEXTSTYLE
  7
Standard
  9
$CLAYER
  8
0
  9
$CELTYPE
  6
ByLayer
  9
$CECOLOR
 62
   256
  9
$CELTSCALE
 40
1.0
  9
$DISPSILH
 70
     0
  9
$DIMSCALE
 40
1.0
  9
$DIMASZ
 40
0.18
  9
$DIMEXO
 40
0.0625
  9
$DIMDLI
 40
0.38
  9
$DIMRND
 40
0.0
  9
$DIMDLE
 40
0.0
  9
$DIMEXE
 40
0.18
  9
$DIMTP
 40
0.0
  9
$DIMTM
 40
0.0
  9
$DIMTXT
 40
0.18
  9
$DIMCEN
 40
0.09
  9
$DIMTSZ
 40
0.0
  9
$DIMTOL
 70
     0
  9
$DIMLIM
 70
     0
  9
$DIMTIH
 70
     1
  9
$DIMTOH
 70
     1
  9
$DIMSE1
 70
     0
  9
$DIMSE2
 70
     0
  9
$DIMTAD
 70
     0
  9
$DIMZIN
 70
     0
  9
$DIMBLK
  1

  9
$DIMASO
 70
     1
  9
$DIMSHO
 70
     1
  9
$DIMPOST
  1

  9
$DIMAPOST
  1

  9
$DIMALT
 70
     0
  9
$DIMALTD
 70
     2
  9
$DIMALTF
 40
25.4
  9
$DIMLFAC
 40
1.0
  9
$DIMTOFL
 70
     0
  9
$DIMTVP
 40
0.0
  9
$DIMTIX
 70
     0
  9
$DIMSOXD
 70
     0
  9
$DIMSAH
 70
     0
  9
$DIMBLK1
  1

  9
$DIMBLK2
  1

  9
$DIMSTYLE
  2
Standard
  9
$DIMCLRD
 70
     0
  9
$DIMCLRE
 70
     0
  9
$DIMCLRT
 70
     0
  9
$DIMTFAC
 40
1.0
  9
$DIMGAP
 40
0.09
  9
$DIMJUST
 70
     0
  9
$DIMSD1
 70
     0
  9
$DIMSD2
 70
     0
  9
$DIMTOLJ
 70
     1
  9
$DIMTZIN
 70
     0
  9
$DIMALTZ
 70
     0
  9
$DIMALTTZ
 70
     0
  9
$DIMUPT
 70
     0
  9
$DIMDEC
 70
     4
  9
$DIMTDEC
 70
     4
  9
$DIMALTU
 70
     2
  9
$DIMALTTD
 70
     2
  9
$DIMTXSTY
  7
Standard
  9
$DIMAUNIT
 70
     0
  9
$DIMADEC
 70
     0
  9
$DIMALTRND
 40
0.0
  9
$DIMAZIN
 70
     0
  9
$DIMDSEP
 70
    46
  9
$DIMATFIT
 70
     3
  9
$DIMFRAC
 70
     0
  9
$DIMLDRBLK
  1

  9
$DIMLUNIT
 70
     2
  9
$DIMLWD
 70
    -2
  9
$DIMLWE
 70
    -2
  9
$DIMTMOVE
 70
     0
  9
$DIMFXL
 40
1.0
  9
$DIMFXLON
 70
     0
  9
$DIMJOGANG
 40
0.7853981633974483
  9
$DIMTFILL
 70
     0
  9
$DIMTFILLCLR
 70
     0
  9
$DIMARCSYM
 70
     0
  9
$DIMLTYPE
  6

  9
$DIMLTEX1
  6

  9
$DIMLTEX2
  6

  9
$DIMTXTDIRECTION
 70
     0
  9
$LUNITS
 70
     2
  9
$LUPREC
 70
     4
  9
$SKETCHINC
 40
0.1
  9
$FILLETRAD
 40
0.0
  9
$AUNITS
 70
     0
  9
$AUPREC
 70
     0
  9
$MENU
  1
.
  9
$ELEVATION
 40
0.0
  9
$PELEVATION
 40
0.0
  9
$THICKNESS
 40
0.0
  9
$LIMCHECK
 70
     0
  9
$CHAMFERA
 40
0.0
  9
$CHAMFERB
 40
0.0
  9
$CHAMFERC
 40
0.0
  9
$CHAMFERD
 40
0.0
  9
$SKPOLY
 70
     0
  9
$TDCREATE
 40
2460656.454583333
  9
$TDUCREATE
 40
2460656.454583333
  9
$TDUPDATE
 40
2460656.454583333
  9
$TDUUPDATE
 40
2460656.454583333
  9
$TDINDWG
 40
0.0000000000
  9
$TDUSRTIMER
 40
0.0000000000
  9
$USRTIMER
 70
     1
  9
$ANGBASE
 50
0.0
  9
$ANGDIR
 70
     0
  9
$PDMODE
 70
     0
  9
$PDSIZE
 40
0.0
  9
$PLINEWID
 40
0.0
  9
$SPLFRAME
 70
     0
  9
$SPLINETYPE
 70
     6
  9
$SPLINESEGS
 70
     8
  9
$HANDSEED
  5
7D5
  9
$SURFTAB1
 70
     6
  9
$SURFTAB2
 70
     6
  9
$SURFTYPE
 70
     6
  9
$SURFU
 70
     6
  9
$SURFV
 70
     6
  9
$UCSBASE
  2

  9
$UCSNAME
  2

  9
$UCSORG
 10
0.0
 20
0.0
 30
0.0
  9
$UCSXDIR
 10
1.0
 20
0.0
 30
0.0
  9
$UCSYDIR
 10
0.0
 20
1.0
 30
0.0
  9
$UCSORTHOREF
  2

  9
$UCSORTHOVIEW
 70
     0
  9
$UCSORGTOP
 10
0.0
 20
0.0
 30
0.0
  9
$UCSORGBOTTOM
 10
0.0
 20
0.0
 30
0.0
  9
$UCSORGLEFT
 10
0.0
 20
0.0
 30
0.0
  9
$UCSORGRIGHT
 10
0.0
 20
0.0
 30
0.0
  9
$UCSORGFRONT
 10
0.0
 20
0.0
 30
0.0
  9
$UCSORGBACK
 10
0.0
 20
0.0
 30
0.0
  9
$PUCSBASE
  2

  9
$PUCSNAME
  2

  9
$PUCSORG
 10
0.0
 20
0.0
 30
0.0
  9
$PUCSXDIR
 10
1.0
 20
0.0
 30
0.0
  9
$PUCSYDIR
 10
0.0
 20
1.0
 30
0.0
  9
$PUCSORTHOREF
  2

  9
$PUCSORTHOVIEW
 70
     0
  9
$PUCSORGTOP
 10
0.0
 20
0.0
 30
0.0
  9
$PUCSORGBOTTOM
 10
0.0
 20
0.0
 30
0.0
  9
$PUCSORGLEFT
 10
0.0
 20
0.0
 30
0.0
  9
$PUCSORGRIGHT
 10
0.0
 20
0.0
 30
0.0
  9
$PUCSORGFRONT
 10
0.0
 20
0.0
 30
0.0
  9
$PUCSORGBACK
 10
0.0
 20
0.0
 30
0.0
  9
$USERI1
 70
     0
  9
$USERI2
 70
     0
  9
$USERI3
 70
     0
  9
$USERI4
 70
     0
  9
$USERI5
 70
     0
  9
$USERR1
 40
0.0
  9
$USERR2
 40
0.0
  9
$USERR3
 40
0.0
  9
$USERR4
 40
0.0
  9
$USERR5
 40
0.0
  9
$WORLDVIEW
 70
     1
  9
$SHADEDGE
 70
     3
  9
$SHADEDIF
 70
    70
  9
$TILEMODE
 70
     1
  9
$MAXACTVP
 70
    64
  9
$PINSBASE
 10
0.0
 20
0.0
 30
0.0
  9
$PLIMCHECK
 70
     0
  9
$PEXTMIN
 10
1.000000000000000E+20
 20
1.000000000000000E+20
 30
1.000000000000000E+20
  9
$PEXTMAX
 10
-1.000000000000000E+20
 20
-1.000000000000000E+20
 30
-1.000000000000000E+20
  9
$PLIMMIN
 10
0.0
 20
0.0
  9
$PLIMMAX
 10
12.0
 20
9.0
  9
$UNITMODE
 70
     0
  9
$VISRETAIN
 70
     1
  9
$PLINEGEN
 70
     0
  9
$PSLTSCALE
 70
     1
  9
$TREEDEPTH
 70
  3020
  9
$CMLSTYLE
  2
Standard
  9
$CMLJUST
 70
     0
  9
$CMLSCALE
 40
1.0
  9
$PROXYGRAPHICS
 70
     1
  9
$MEASUREMENT
 70
     0
  9
$CELWEIGHT
370
    -1
  9
$ENDCAPS
280
     0
  9
$JOINSTYLE
280
     0
  9
$LWDISPLAY
290
     0
  9
$INSUNITS
 70
     4
  9
$HYPERLINKBASE
  1

  9
$STYLESHEET
  1

  9
$XEDIT
290
     1
  9
$CEPSNTYPE
380
     0
  9
$PSTYLEMODE
290
     1
  9
$FINGERPRINTGUID
  2
{9FE29948-E7A6-924F-A086-D38363D33A22}
  9
$VERSIONGUID
  2
{C975C867-BEAA-3043-B43C-B2A88A944B3D}
  9
$EXTNAMES
290
     1
  9
$PSVPSCALE
 40
0.0
  9
$OLESTARTUP
290
     0
  9
$SORTENTS
280
   127
  9
$INDEXCTL
280
     0
  9
$HIDETEXT
280
     1
  9
$XCLIPFRAME
280
     2
  9
$HALOGAP
280
     0
  9
$OBSCOLOR
 70
   257
  9
$OBSLTYPE
280
     0
  9
$INTERSECTIONDISPLAY
280
     0
  9
$INTERSECTIONCOLOR
 70
   257
  9
$DIMASSOC
280
     2
  9
$PROJECTNAME
  1

  9
$CAMERADISPLAY
290
     0
  9
$LENSLENGTH
 40
50.0
  9
$CAMERAHEIGHT
 40
0.0
  9
$STEPSPERSEC
 40
2.0
  9
$STEPSIZE
 40
6.0
  9
$3DDWFPREC
 40
2.0
  9
$PSOLWIDTH
 40
0.25
  9
$PSOLHEIGHT
 40
4.0
  9
$LOFTANG1
 40
1.570796326794896
  9
$LOFTANG2
 40
1.570796326794896
  9
$LOFTMAG1
 40
0.0
  9
$LOFTMAG2
 40
0.0
  9
$LOFTPARAM
 70
     7
  9
$LOFTNORMALS
280
     1
  9
$LATITUDE
 40
37.795
  9
$LONGITUDE
 40
-122.394
  9
$NORTHDIRECTION
 40
0.0
  9
$TIMEZONE
 70
 -8000
  9
$LIGHTGLYPHDISPLAY
280
     1
  9
$TILEMODELIGHTSYNCH
280
     1
  9
$CMATERIAL
347
11
  9
$SOLIDHIST
280
     0
  9
$SHOWHIST
280
     1
  9
$DWFFRAME
280
     2
  9
$DGNFRAME
280
     0
  9
$REALWORLDSCALE
290
     1
  9
$INTERFERECOLOR
 62
     1
  9
$INTERFEREOBJVS
345
33
  9
$INTERFEREVPVS
346
30
  9
$CSHADOW
280
     0
  9
$SHADOWPLANELOCATION
 40
0.0
  0
ENDSEC
  0
SECTION
  2
CLASSES
  0
CLASS
  1
ACDBDICTIONARYWDFLT
  2
AcDbDictionaryWithDefault
  3
ObjectDBX Classes
 90
        0
 91
        1
280
     0
281
     0
  0
CLASS
  1
MATERIAL
  2
AcDbMaterial
  3
ObjectDBX Classes
 90
     1153
 91
        3
280
     0
281
     0
  0
CLASS
  1
VISUALSTYLE
  2
AcDbVisualStyle
  3
ObjectDBX Classes
 90
     4095
 91
       24
280
     0
281
     0
  0
CLASS
  1
SCALE
  2
AcDbScale
  3
ObjectDBX Classes
 90
     1153
 91
       17
280
     0
281
     0
  0
CLASS
  1
TABLESTYLE
  2
AcDbTableStyle
  3
ObjectDBX Classes
 90
     4095
 91
        1
280
     0
281
     0
  0
CLASS
  1
MLEADERSTYLE
  2
AcDbMLeaderStyle
  3
ACDB_MLEADERSTYLE_CLASS
 90
     4095
 91
        1
280
     0
281
     0
  0
CLASS
  1
ACDBSECTIONVIEWSTYLE
  2
AcDbSectionViewStyle
  3
ObjectDBX Classes
 90
     1025
 91
        1
280
     0
281
     0
  0
CLASS
  1
ACDBDETAILVIEWSTYLE
  2
AcDbDetailViewStyle
  3
ObjectDBX Classes
 90
     1025
 91
        1
280
     0
281
     0
  0
CLASS
  1
DICTIONARYVAR
  2
AcDbDictionaryVar
  3
ObjectDBX Classes
 90
        0
 91
        5
280
     0
281
     0
  0
CLASS
  1
CELLSTYLEMAP
  2
AcDbCellStyleMap
  3
ObjectDBX Classes
 90
     1152
 91
        1
280
     0
281
     0
  0
ENDSEC
  0
SECTION
  2
TABLES
  0
TABLE
  2
VPORT
  5
8
330
0
100
AcDbSymbolTable
 70
     1
1001
ACAD
1000
DbSaveVer
1071
      371
  0
VPORT
  5
57
330
8
100
AcDbSymbolTableRecord
100
AcDbViewportTableRecord
  2
*Active
 70
     0
 10
0.0
 20
0.0
 11
1.0
 21
1.0
 12
500.0
 22
500.0
 13
0.0
 23
0.0
 14
1.0
 24
1.0
 15
0.0
 25
0.0
 16
0.0
 26
0.0
 36
1.0
 17
0.0
 27
0.0
 37
0.0
 40
12.0
 41
1.0
 42
50.0
 43
0.0
 44
0.0
 50
0.0
 51
0.0
 71
     0
 72
   100
 73
     1
 74
     1
 75
     0
 76
     0
 77
     0
 78
     0
281
     0
 65
     1
110
0.0
120
0.0
130
0.0
111
1.0
121
0.0
131
0.0
112
0.0
122
1.0
132
0.0
 79
     0
146
0.0
 60
     3
 61
     5
292
     1
282
     1
141
0.0
142
0.0
 63
   250
421
  3355443
  0
ENDTAB
  0
TABLE
  2
LTYPE
  5
5
330
0
100
AcDbSymbolTable
 70
     1
  0
LTYPE
  5
5B
330
5
100
AcDbSymbolTableRecord
100
AcDbLinetypeTableRecord
  2
ByBlock
 70
     0
  3

 72
    65
 73
     0
 40
0.0
  0
LTYPE
  5
5C
330
5
100
AcDbSymbolTableRecord
100
AcDbLinetypeTableRecord
  2
ByLayer
 70
     0
  3

 72
    65
 73
     0
 40
0.0
  0
LTYPE
  5
5D
330
5
100
AcDbSymbolTableRecord
100
AcDbLinetypeTableRecord
  2
Continuous
 70
     0
  3
Solid line
 72
    65
 73
     0
 40
0.0
  0
ENDTAB
  0
TABLE
  2
LAYER
  5
2
330
0
100
AcDbSymbolTable
 70
    11
  0
LAYER
  5
54
330
2
100
AcDbSymbolTableRecord
100
AcDbLayerTableRecord
  2
0
 70
     0
 62
     7
  6
Continuous
370
    -3
390
F
347
21
348
0
  0
LAYER
  5
7A
330
2
100
AcDbSymbolTableRecord
100
AcDbLayerTableRecord
  2
팀플 평면 최종 v6_0
 70
     0
 62
     7
  6
Continuous
370
    -3
390
F
347
21
348
0
1001
NFusion_SketchTransform
1000
1.000000;0.000000;0.000000;0.000000;0.000000;1.000000;0.000000;0.000000;0.000000;0.000000;1.000000;0.000000;0.000000;0.000000;0.000000;1.000000
  0
LAYER
  5
7AF
330
2
100
AcDbSymbolTableRecord
100
AcDbLayerTableRecord
  2
팀플 평면 최종 v6_Sketch2
 70
     0
 62
     7
  6
Continuous
370
    -3
390
F
347
21
348
0
1001
NFusion_SketchTransform
1000
1.000000;0.000000;0.000000;0.910815;0.000000;1.000000;0.000000;0.400461;0.000000;0.000000;1.000000;0.000000;0.000000;0.000000;0.000000;1.000000
  0
LAYER
  5
7B1
330
2
100
AcDbSymbolTableRecord
100
AcDbLayerTableRecord
  2
팀플 평면 최종 v6_Sketch3
 70
     0
 62
     7
  6
Continuous
370
    -3
390
F
347
21
348
0
1001
NFusion_SketchTransform
1000
1.000000;0.000000;0.000000;0.000000;0.000000;1.000000;0.000000;0.000000;0.000000;0.000000;1.000000;0.000000;0.000000;0.000000;0.000000;1.000000
  0
LAYER
  5
7B3
330
2
100
AcDbSymbolTableRecord
100
AcDbLayerTableRecord
  2
팀플 평면 최종 v6_Sketch4
 70
     0
 62
     7
  6
Continuous
370
    -3
390
F
347
21
348
0
1001
NFusion_SketchTransform
1000
1.000000;0.000000;0.000000;0.000000;0.000000;1.000000;0.000000;0.000000;0.000000;0.000000;1.000000;0.000000;0.000000;0.000000;0.000000;1.000000
  0
LAYER
  5
7B6
330
2
100
AcDbSymbolTableRecord
100
AcDbLayerTableRecord
  2
팀플 평면 최종 v6_Sketch5
 70
     0
 62
     7
  6
Continuous
370
    -3
390
F
347
21
348
0
1001
NFusion_SketchTransform
1000
1.000000;0.000000;0.000000;0.000000;0.000000;1.000000;0.000000;0.000000;0.000000;0.000000;1.000000;0.000000;0.000000;0.000000;0.000000;1.000000
  0
LAYER
  5
7B9
330
2
100
AcDbSymbolTableRecord
100
AcDbLayerTableRecord
  2
팀플 평면 최종 v6_Sketch6
 70
     0
 62
     7
  6
Continuous
370
    -3
390
F
347
21
348
0
1001
NFusion_SketchTransform
1000
1.000000;0.000000;0.000000;0.000000;0.000000;1.000000;0.000000;0.000000;0.000000;0.000000;1.000000;0.000000;0.000000;0.000000;0.000000;1.000000
  0
LAYER
  5
7BC
330
2
100
AcDbSymbolTableRecord
100
AcDbLayerTableRecord
  2
팀플 평면 최종 v6_Sketch7
 70
     0
 62
     7
  6
Continuous
370
    -3
390
F
347
21
348
0
1001
NFusion_SketchTransform
1000
1.000000;0.000000;0.000000;0.000000;0.000000;1.000000;0.000000;0.000000;0.000000;0.000000;1.000000;0.000000;0.000000;0.000000;0.000000;1.000000
  0
LAYER
  5
7BE
330
2
100
AcDbSymbolTableRecord
100
AcDbLayerTableRecord
  2
팀플 평면 최종 v6_Sketch8
 70
     0
 62
     7
  6
Continuous
370
    -3
390
F
347
21
348
0
1001
NFusion_SketchTransform
1000
1.000000;0.000000;0.000000;0.000000;0.000000;1.000000;0.000000;0.000000;0.000000;0.000000;1.000000;0.000000;0.000000;0.000000;0.000000;1.000000
  0
LAYER
  5
7C1
330
2
100
AcDbSymbolTableRecord
100
AcDbLayerTableRecord
  2
팀플 평면 최종 v6_Sketch9
 70
     0
 62
     7
  6
Continuous
370
    -3
390
F
347
21
348
0
1001
NFusion_SketchTransform
1000
1.000000;0.000000;0.000000;0.000000;0.000000;1.000000;0.000000;0.000000;0.000000;0.000000;1.000000;0.000000;0.000000;0.000000;0.000000;1.000000
  0
LAYER
  5
7C5
330
2
100
AcDbSymbolTableRecord
100
AcDbLayerTableRecord
  2
팀플 평면 최종 v6_Sketch10
 70
     0
 62
     7
  6
Continuous
370
    -3
390
F
347
21
348
0
1001
NFusion_SketchTransform
1000
1.000000;0.000000;0.000000;0.000000;0.000000;1.000000;0.000000;0.000000;0.000000;0.000000;1.000000;0.000000;0.000000;0.000000;0.000000;1.000000
  0
ENDTAB
  0
TABLE
  2
STYLE
  5
3
330
0
100
AcDbSymbolTable
 70
     2
  0
STYLE
  5
55
330
3
100
AcDbSymbolTableRecord
100
AcDbTextStyleTableRecord
  2
Standard
 70
     0
 40
0.0
 41
1.0
 50
0.0
 71
     0
 42
0.2
  3
txt
  4

  0
STYLE
  5
5A
330
3
100
AcDbSymbolTableRecord
100
AcDbTextStyleTableRecord
  2
Annotative
 70
     0
 40
0.0
 41
1.0
 50
0.0
 71
     0
 42
0.2
  3
txt
  4

1001
AcadAnnotative
1000
AnnotativeData
1002
{
1070
     1
1070
     1
1002
}
  0
ENDTAB
  0
TABLE
  2
VIEW
  5
6
330
0
100
AcDbSymbolTable
 70
     0
  0
ENDTAB
  0
TABLE
  2
UCS
  5
7
330
0
100
AcDbSymbolTable
 70
     0
  0
ENDTAB
  0
TABLE
  2
APPID
  5
9
330
0
100
AcDbSymbolTable
 70
     4
  0
APPID
  5
56
330
9
100
AcDbSymbolTableRecord
100
AcDbRegAppTableRecord
  2
ACAD
 70
     0
  0
APPID
  5
5E
330
9
100
AcDbSymbolTableRecord
100
AcDbRegAppTableRecord
  2
AcadAnnotative
 70
     0
  0
APPID
  5
78
330
9
100
AcDbSymbolTableRecord
100
AcDbRegAppTableRecord
  2
EDIT_IN_FUSION_ACAD_ADDIN
 70
     0
  0
APPID
  5
79
330
9
100
AcDbSymbolTableRecord
100
AcDbRegAppTableRecord
  2
NFusion_SketchTransform
 70
     0
  0
ENDTAB
  0
TABLE
  2
DIMSTYLE
  5
A
330
0
100
AcDbSymbolTable
 70
     2
100
AcDbDimStyleTable
 71
     0
  0
DIMSTYLE
105
58
330
A
100
AcDbSymbolTableRecord
100
AcDbDimStyleTableRecord
  2
Standard
 70
     0
340
55
  0
DIMSTYLE
105
59
330
A
100
AcDbSymbolTableRecord
100
AcDbDimStyleTableRecord
  2
Annotative
 70
     0
340
55
1001
AcadAnnotative
1000
AnnotativeData
1002
{
1070
     1
1070
     1
1002
}
  0
ENDTAB
  0
TABLE
  2
BLOCK_RECORD
  5
1
330
0
100
AcDbSymbolTable
 70
     1
  0
BLOCK_RECORD
  5
70
330
1
100
AcDbSymbolTableRecord
100
AcDbBlockTableRecord
  2
*Model_Space
340
73
 70
     0
280
     1
281
     0
  0
BLOCK_RECORD
  5
6C
330
1
100
AcDbSymbolTableRecord
100
AcDbBlockTableRecord
  2
*Paper_Space
340
6F
 70
     0
280
     1
281
     0
  0
BLOCK_RECORD
  5
74
330
1
100
AcDbSymbolTableRecord
100
AcDbBlockTableRecord
  2
*Paper_Space0
340
77
 70
     0
280
     1
281
     0
  0
ENDTAB
  0
ENDSEC
  0
SECTION
  2
BLOCKS
  0
BLOCK
  5
71
330
70
100
AcDbEntity
  8
0
100
AcDbBlockBegin
  2
*Model_Space
 70
     0
 10
0.0
 20
0.0
 30
0.0
  3
*Model_Space
  1

  0
ENDBLK
  5
72
330
70
100
AcDbEntity
  8
0
100
AcDbBlockEnd
  0
BLOCK
  5
6D
330
6C
100
AcDbEntity
 67
     1
  8
0
100
AcDbBlockBegin
  2
*Paper_Space
 70
     0
 10
0.0
 20
0.0
 30
0.0
  3
*Paper_Space
  1

  0
ENDBLK
  5
6E
330
6C
100
AcDbEntity
 67
     1
  8
0
100
AcDbBlockEnd
  0
BLOCK
  5
75
330
74
100
AcDbEntity
 67
     1
  8
0
100
AcDbBlockBegin
  2
*Paper_Space0
 70
     0
 10
0.0
 20
0.0
 30
0.0
  3
*Paper_Space0
  1

  0
ENDBLK
  5
76
330
74
100
AcDbEntity
 67
     1
  8
0
100
AcDbBlockEnd
  0
ENDSEC
  0
SECTION
  2
ENTITIES
  0
LINE
  5
7B
330
70
100
AcDbEntity
  8
팀플 평면 최종 v6_0
100
AcDbLine
 10
102.7
 20
442.2919999999999
 30
0.0
 11
102.7
 21
442.302
 31
0.0
  0
LINE
  5
7C
330
70
100
AcDbEntity
  8
팀플 평면 최종 v6_0
100
AcDbLine
 10
36.5993
 20
225.1
 30
0.0
 11
42.6007
 21
225.1
 31
0.0
  0
LINE
  5
7D
330
70
100
AcDbEntity
  8
팀플 평면 최종 v6_0
100
AcDbLine
 10
30.69990000000001
 20
228.1
 30
0.0
 11
36.5002
 21
228.1
 31
0.0
  0
LINE
  5
7E
330
70
100
AcDbEntity
  8
팀플 평면 최종 v6_0
100
AcDbLine
 10
36.5372
 20
228.138
 30
0.0
 11
36.5139
 21
228.142
 31
0.0
  0
LINE
  5
7F
330
70
100
AcDbEntity
  8
팀플 평면 최종 v6_0
100
AcDbLine
 10
84.50969999999999
 20
442.302
 30
0.0
 11
84.4998
 21
442.302
 31
0.0
  0
LINE
  5
80
330
70
100
AcDbEntity
  8
팀플 평면 최종 v6_0
100
AcDbLine
 10
60.5137
 20
228.142
 30
0.0
 11
60.5
 21
228.111
 31
0.0
  0
LINE
  5
81
330
70
100
AcDbEntity
  8
팀플 평면 최종 v6_0
100
AcDbLine
 10
30.6889
 20
228.1
 30
0.0
 11
30.6999
 21
228.1
 31
0.0
  0
LINE
  5
82
330
70
100
AcDbEntity
  8
팀플 평면 최종 v6_0
100
AcDbLine
 10
54.7
 20
225.2
 30
0.0
 11
54.7
 21
228.1
 31
0.0
  0
LINE
  5
83
330
70
100
AcDbEntity
  8
팀플 평면 최종 v6_0
100
AcDbLine
 10
24.50010000000001
 20
228.111
 30
0.0
 11
24.50010000000001
 21
228.1
 31
0.0
  0
LINE
  5
84
330
70
100
AcDbEntity
  8
팀플 평면 최종 v6_0
100
AcDbLine
 10
66.69970000000001
 20
225.184
 30
0.0
 11
66.69970000000001
 21
225.2
 31
0.0
  0
LINE
  5
85
330
70
100
AcDbEntity
  8
팀플 평면 최종 v6_0
100
AcDbLine
 10
84.5414
 20
442.2880000000001
 30
0.0
 11
84.50970000000001
 21
442.302
 31
0.0
  0
LINE
  5
86
330
70
100
AcDbEntity
  8
팀플 평면 최종 v6_0
100
AcDbLine
 10
30.66140000000001
 20
228.138
 30
0.0
 11
30.65720000000001
 21
228.115
 31
0.0
  0
LINE
  5
87
330
70
100
AcDbEntity
  8
팀플 평면 최종 v6_0
100
AcDbLine
 10
102.663
 20
442.263
 30
0.0
 11
102.684
 21
442.26
 31
0.0
  0
LINE
  5
88
330
70
100
AcDbEntity
  8
팀플 평면 최종 v6_0
100
AcDbLine
 10
108.5
 20
442.2919999999999
 30
0.0
 11
108.514
 21
442.26
 31
0.0
  0
LINE
  5
89
330
70
100
AcDbEntity
  8
팀플 평면 최종 v6_0
100
AcDbLine
 10
90.69990000000002
 20
445.22
 30
0.0
 11
90.67090000000002
 21
445.273
 31
0.0
  0
LINE
  5
8A
330
70
100
AcDbEntity
  8
팀플 평면 최종 v6_0
100
AcDbLine
 10
30.69990000000001
 20
225.2
 30
0.0
 11
30.69990000000001
 21
228.1
 31
0.0
  0
LINE
  5
8B
330
70
100
AcDbEntity
  8
팀플 평면 최종 v6_0
100
AcDbLine
 10
36.5002
 20
228.1
 30
0.0
 11
36.5097
 21
228.1
 31
0.0
  0
LINE
  5
8C
330
70
100
AcDbEntity
  8
팀플 평면 최종 v6_0
100
AcDbLine
 10
30.69990000000001
 20
228.1
 30
0.0
 11
30.69990000000001
 21
228.111
 31
0.0
  0
LINE
  5
8D
330
70
100
AcDbEntity
  8
팀플 평면 최종 v6_0
100
AcDbLine
 10
48.60079999999999
 20
225.1
 30
0.0
 11
54.60049999999999
 21
225.1
 31
0.0
  0
LINE
  5
8E
330
70
100
AcDbEntity
  8
팀플 평면 최종 v6_0
100
AcDbLine
 10
90.6625
 20
442.263
 30
0.0
 11
90.68470000000001
 21
442.26
 31
0.0
  0
LINE
  5
8F
330
70
100
AcDbEntity
  8
팀플 평면 최종 v6_0
100
AcDbLine
 10
13.0996
 20
228.1
 30
0.0
 11
24.50010000000001
 21
228.1
 31
0.0
  0
LINE
  5
90
330
70
100
AcDbEntity
  8
팀플 평면 최종 v6_0
100
AcDbLine
 10
54.60049999999999
 20
225.1
 30
0.0
 11
54.6171
 21
225.1
 31
0.0
  0
LINE
  5
91
330
70
100
AcDbEntity
  8
팀플 평면 최종 v6_0
100
AcDbLine
 10
84.4998
 20
445.198
 30
0.0
 11
84.4998
 21
442.302
 31
0.0
  0
LINE
  5
92
330
70
100
AcDbEntity
  8
팀플 평면 최종 v6_0
100
AcDbLine
 10
60.5
 20
228.111
 30
0.0
 11
60.5
 21
228.1
 31
0.0
  0
LINE
  5
93
330
70
100
AcDbEntity
  8
팀플 평면 최종 v6_0
100
AcDbLine
 10
42.69989999999999
 20
228.111
 30
0.0
 11
42.68469999999999
 21
228.142
 31
0.0
  0
LINE
  5
94
330
70
100
AcDbEntity
  8
팀플 평면 최종 v6_0
100
AcDbLine
 10
102.7
 20
442.302
 30
0.0
 11
102.689
 21
442.302
 31
0.0
  0
LINE
  5
95
330
70
100
AcDbEntity
  8
팀플 평면 최종 v6_0
100
AcDbLine
 10
144.5
 20
442.302
 30
0.0
 11
144.5
 21
442.2919999999999
 31
0.0
  0
LINE
  5
96
330
70
100
AcDbEntity
  8
팀플 평면 최종 v6_0
100
AcDbLine
 10
84.52870000000002
 20
445.273
 30
0.0
 11
84.49980000000001
 21
445.22
 31
0.0
  0
LINE
  5
97
330
70
100
AcDbEntity
  8
팀플 평면 최종 v6_0
100
AcDbLine
 10
84.4998
 20
442.302
 30
0.0
 11
78.69979999999999
 21
442.302
 31
0.0
  0
LINE
  5
98
330
70
100
AcDbEntity
  8
팀플 평면 최종 v6_0
100
AcDbLine
 10
102.7
 20
445.22
 30
0.0
 11
102.671
 21
445.273
 31
0.0
  0
LINE
  5
99
330
70
100
AcDbEntity
  8
팀플 평면 최종 v6_0
100
AcDbLine
 10
96.5412
 20
442.2880000000001
 30
0.0
 11
96.5094
 21
442.302
 31
0.0
  0
LINE
  5
9A
330
70
100
AcDbEntity
  8
팀플 평면 최종 v6_0
100
AcDbLine
 10
90.69990000000002
 20
442.302
 30
0.0
 11
90.68859999999999
 21
442.302
 31
0.0
  0
LINE
  5
9B
330
70
100
AcDbEntity
  8
팀플 평면 최종 v6_0
100
AcDbLine
 10
108.51
 20
442.302
 30
0.0
 11
108.5
 21
442.302
 31
0.0
  0
LINE
  5
9C
330
70
100
AcDbEntity
  8
팀플 평면 최종 v6_0
100
AcDbLine
 10
102.7
 20
442.302
 30
0.0
 11
102.7
 21
445.198
 31
0.0
  0
LINE
  5
9D
330
70
100
AcDbEntity
  8
팀플 평면 최종 v6_0
100
AcDbLine
 10
30.65720000000001
 20
228.115
 30
0.0
 11
30.68890000000001
 21
228.1
 31
0.0
  0
LINE
  5
9E
330
70
100
AcDbEntity
  8
팀플 평면 최종 v6_0
100
AcDbLine
 10
144.537
 20
442.263
 30
0.0
 11
144.541
 21
442.2880000000001
 31
0.0
  0
LINE
  5
9F
330
70
100
AcDbEntity
  8
팀플 평면 최종 v6_0
100
AcDbLine
 10
108.5
 20
442.302
 30
0.0
 11
102.7
 21
442.302
 31
0.0
  0
LINE
  5
A0
330
70
100
AcDbEntity
  8
팀플 평면 최종 v6_0
100
AcDbLine
 10
102.7
 20
445.198
 30
0.0
 11
102.7
 21
445.22
 31
0.0
  0
LINE
  5
A1
330
70
100
AcDbEntity
  8
팀플 평면 최종 v6_0
100
AcDbLine
 10
114.671
 20
445.273
 30
0.0
 11
114.617
 21
445.301
 31
0.0
  0
LINE
  5
A2
330
70
100
AcDbEntity
  8
팀플 평면 최종 v6_0
100
AcDbLine
 10
114.7
 20
445.22
 30
0.0
 11
114.671
 21
445.273
 31
0.0
  0
LINE
  5
A3
330
70
100
AcDbEntity
  8
팀플 평면 최종 v6_0
100
AcDbLine
 10
30.6848
 20
228.142
 30
0.0
 11
30.66140000000001
 21
228.138
 31
0.0
  0
LINE
  5
A4
330
70
100
AcDbEntity
  8
팀플 평면 최종 v6_0
100
AcDbLine
 10
30.6696
 20
225.13
 30
0.0
 11
30.69990000000001
 21
225.184
 31
0.0
  0
LINE
  5
A5
330
70
100
AcDbEntity
  8
팀플 평면 최종 v6_0
100
AcDbLine
 10
30.69990000000001
 20
225.184
 30
0.0
 11
30.69990000000001
 21
225.2
 31
0.0
  0
LINE
  5
A6
330
70
100
AcDbEntity
  8
팀플 평면 최종 v6_0
100
AcDbLine
 10
24.5815
 20
225.1
 30
0.0
 11
24.5994
 21
225.1
 31
0.0
  0
LINE
  5
A7
330
70
100
AcDbEntity
  8
팀플 평면 최종 v6_0
100
AcDbLine
 10
24.50010000000001
 20
228.1
 30
0.0
 11
24.50010000000001
 21
225.2
 31
0.0
  0
LINE
  5
A8
330
70
100
AcDbEntity
  8
팀플 평면 최종 v6_0
100
AcDbLine
 10
30.61590000000001
 20
225.1
 30
0.0
 11
30.6696
 21
225.13
 31
0.0
  0
LINE
  5
A9
330
70
100
AcDbEntity
  8
팀플 평면 최종 v6_0
100
AcDbLine
 10
36.5414
 20
228.115
 30
0.0
 11
36.5372
 21
228.138
 31
0.0
  0
LINE
  5
AA
330
70
100
AcDbEntity
  8
팀플 평면 최종 v6_0
100
AcDbLine
 10
48.4999
 20
225.2
 30
0.0
 11
48.4999
 21
225.184
 31
0.0
  0
LINE
  5
AB
330
70
100
AcDbEntity
  8
팀플 평면 최종 v6_0
100
AcDbLine
 10
24.50010000000001
 20
225.184
 30
0.0
 11
24.52910000000001
 21
225.13
 31
0.0
  0
LINE
  5
AC
330
70
100
AcDbEntity
  8
팀플 평면 최종 v6_0
100
AcDbLine
 10
54.7
 20
228.1
 30
0.0
 11
54.7
 21
228.111
 31
0.0
  0
LINE
  5
AD
330
70
100
AcDbEntity
  8
팀플 평면 최종 v6_0
100
AcDbLine
 10
30.69990000000001
 20
228.111
 30
0.0
 11
30.6848
 21
228.142
 31
0.0
  0
LINE
  5
AE
330
70
100
AcDbEntity
  8
팀플 평면 최종 v6_0
100
AcDbLine
 10
108.514
 20
442.26
 30
0.0
 11
108.537
 21
442.263
 31
0.0
  0
LINE
  5
AF
330
70
100
AcDbEntity
  8
팀플 평면 최종 v6_0
100
AcDbLine
 10
84.53720000000002
 20
442.263
 30
0.0
 11
84.5414
 21
442.2880000000001
 31
0.0
  0
LINE
  5
B0
330
70
100
AcDbEntity
  8
팀플 평면 최종 v6_0
100
AcDbLine
 10
108.537
 20
442.263
 30
0.0
 11
108.541
 21
442.2880000000001
 31
0.0
  0
LINE
  5
B1
330
70
100
AcDbEntity
  8
팀플 평면 최종 v6_0
100
AcDbLine
 10
24.5994
 20
225.1
 30
0.0
 11
30.5993
 21
225.1
 31
0.0
  0
LINE
  5
B2
330
70
100
AcDbEntity
  8
팀플 평면 최종 v6_0
100
AcDbLine
 10
36.5097
 20
228.1
 30
0.0
 11
36.5414
 21
228.115
 31
0.0
  0
LINE
  5
B3
330
70
100
AcDbEntity
  8
팀플 평면 최종 v6_0
100
AcDbLine
 10
90.69990000000002
 20
442.2919999999999
 30
0.0
 11
90.69990000000002
 21
442.302
 31
0.0
  0
LINE
  5
B4
330
70
100
AcDbEntity
  8
팀플 평면 최종 v6_0
100
AcDbLine
 10
60.5
 20
228.1
 30
0.0
 11
60.5095
 21
228.1
 31
0.0
  0
LINE
  5
B5
330
70
100
AcDbEntity
  8
팀플 평면 최종 v6_0
100
AcDbLine
 10
90.68859999999999
 20
228.1
 30
0.0
 11
90.69990000000002
 21
228.1
 31
0.0
  0
LINE
  5
B6
330
70
100
AcDbEntity
  8
팀플 평면 최종 v6_0
100
AcDbLine
 10
48.4999
 20
228.1
 30
0.0
 11
48.4999
 21
225.2
 31
0.0
  0
LINE
  5
B7
330
70
100
AcDbEntity
  8
팀플 평면 최종 v6_0
100
AcDbLine
 10
60.5
 20
225.2
 30
0.0
 11
60.5
 21
225.184
 31
0.0
  0
LINE
  5
B8
330
70
100
AcDbEntity
  8
팀플 평면 최종 v6_0
100
AcDbLine
 10
42.6695
 20
225.13
 30
0.0
 11
42.69989999999999
 21
225.184
 31
0.0
  0
LINE
  5
B9
330
70
100
AcDbEntity
  8
팀플 평면 최종 v6_0
100
AcDbLine
 10
48.4999
 20
228.111
 30
0.0
 11
48.4999
 21
228.1
 31
0.0
  0
LINE
  5
BA
330
70
100
AcDbEntity
  8
팀플 평면 최종 v6_0
100
AcDbLine
 10
48.4999
 20
225.184
 30
0.0
 11
48.52920000000001
 21
225.13
 31
0.0
  0
LINE
  5
BB
330
70
100
AcDbEntity
  8
팀플 평면 최종 v6_0
100
AcDbLine
 10
90.6709
 20
225.13
 30
0.0
 11
90.69990000000002
 21
225.184
 31
0.0
  0
LINE
  5
BC
330
70
100
AcDbEntity
  8
팀플 평면 최종 v6_0
100
AcDbLine
 10
72.6006
 20
225.1
 30
0.0
 11
78.6007
 21
225.1
 31
0.0
  0
LINE
  5
BD
330
70
100
AcDbEntity
  8
팀플 평면 최종 v6_0
100
AcDbLine
 10
24.5291
 20
225.13
 30
0.0
 11
24.5815
 21
225.1
 31
0.0
  0
LINE
  5
BE
330
70
100
AcDbEntity
  8
팀플 평면 최종 v6_0
100
AcDbLine
 10
36.5002
 20
225.184
 30
0.0
 11
36.5291
 21
225.13
 31
0.0
  0
LINE
  5
BF
330
70
100
AcDbEntity
  8
팀플 평면 최종 v6_0
100
AcDbLine
 10
60.52890000000001
 20
225.13
 30
0.0
 11
60.58250000000001
 21
225.1
 31
0.0
  0
LINE
  5
C0
330
70
100
AcDbEntity
  8
팀플 평면 최종 v6_0
100
AcDbLine
 10
42.69989999999999
 20
228.1
 30
0.0
 11
48.4999
 21
228.1
 31
0.0
  0
LINE
  5
C1
330
70
100
AcDbEntity
  8
팀플 평면 최종 v6_0
100
AcDbLine
 10
42.6173
 20
225.1
 30
0.0
 11
42.6695
 21
225.13
 31
0.0
  0
LINE
  5
C2
330
70
100
AcDbEntity
  8
팀플 평면 최종 v6_0
100
AcDbLine
 10
84.53720000000002
 20
228.138
 30
0.0
 11
84.51359999999999
 21
228.142
 31
0.0
  0
LINE
  5
C3
330
70
100
AcDbEntity
  8
팀플 평면 최종 v6_0
100
AcDbLine
 10
54.7
 20
228.111
 30
0.0
 11
54.6848
 21
228.142
 31
0.0
  0
LINE
  5
C4
330
70
100
AcDbEntity
  8
팀플 평면 최종 v6_0
100
AcDbLine
 10
66.69970000000001
 20
225.2
 30
0.0
 11
66.69970000000001
 21
228.1
 31
0.0
  0
LINE
  5
C5
330
70
100
AcDbEntity
  8
팀플 평면 최종 v6_0
100
AcDbLine
 10
48.5415
 20
228.115
 30
0.0
 11
48.5373
 21
228.138
 31
0.0
  0
LINE
  5
C6
330
70
100
AcDbEntity
  8
팀플 평면 최종 v6_0
100
AcDbLine
 10
90.69990000000002
 20
228.111
 30
0.0
 11
90.68470000000003
 21
228.142
 31
0.0
  0
LINE
  5
C7
330
70
100
AcDbEntity
  8
팀플 평면 최종 v6_0
100
AcDbLine
 10
72.5096
 20
228.1
 30
0.0
 11
72.5413
 21
228.115
 31
0.0
  0
LINE
  5
C8
330
70
100
AcDbEntity
  8
팀플 평면 최종 v6_0
100
AcDbLine
 10
36.5002
 20
228.1
 30
0.0
 11
36.5002
 21
225.2
 31
0.0
  0
LINE
  5
C9
330
70
100
AcDbEntity
  8
팀플 평면 최종 v6_0
100
AcDbLine
 10
42.68889999999999
 20
228.1
 30
0.0
 11
42.69989999999999
 21
228.1
 31
0.0
  0
LINE
  5
CA
330
70
100
AcDbEntity
  8
팀플 평면 최종 v6_0
100
AcDbLine
 10
54.6626
 20
228.138
 30
0.0
 11
54.6573
 21
228.115
 31
0.0
  0
LINE
  5
CB
330
70
100
AcDbEntity
  8
팀플 평면 최종 v6_0
100
AcDbLine
 10
24.5139
 20
228.142
 30
0.0
 11
24.50010000000001
 21
228.111
 31
0.0
  0
LINE
  5
CC
330
70
100
AcDbEntity
  8
팀플 평면 최종 v6_0
100
AcDbLine
 10
24.50010000000001
 20
228.1
 30
0.0
 11
24.5098
 21
228.1
 31
0.0
  0
LINE
  5
CD
330
70
100
AcDbEntity
  8
팀플 평면 최종 v6_0
100
AcDbLine
 10
36.5002
 20
228.111
 30
0.0
 11
36.5002
 21
228.1
 31
0.0
  0
LINE
  5
CE
330
70
100
AcDbEntity
  8
팀플 평면 최종 v6_0
100
AcDbLine
 10
36.5002
 20
225.2
 30
0.0
 11
36.5002
 21
225.184
 31
0.0
  0
LINE
  5
CF
330
70
100
AcDbEntity
  8
팀플 평면 최종 v6_0
100
AcDbLine
 10
66.69970000000001
 20
228.1
 30
0.0
 11
72.5001
 21
228.1
 31
0.0
  0
LINE
  5
D0
330
70
100
AcDbEntity
  8
팀플 평면 최종 v6_0
100
AcDbLine
 10
60.5
 20
225.184
 30
0.0
 11
60.52890000000001
 21
225.13
 31
0.0
  0
LINE
  5
D1
330
70
100
AcDbEntity
  8
팀플 평면 최종 v6_0
100
AcDbLine
 10
60.58250000000001
 20
225.1
 30
0.0
 11
60.6005
 21
225.1
 31
0.0
  0
LINE
  5
D2
330
70
100
AcDbEntity
  8
팀플 평면 최종 v6_0
100
AcDbLine
 10
90.69990000000002
 20
225.2
 30
0.0
 11
90.69990000000002
 21
228.1
 31
0.0
  0
LINE
  5
D3
330
70
100
AcDbEntity
  8
팀플 평면 최종 v6_0
100
AcDbLine
 10
54.67100000000002
 20
225.13
 30
0.0
 11
54.70000000000001
 21
225.184
 31
0.0
  0
LINE
  5
D4
330
70
100
AcDbEntity
  8
팀플 평면 최종 v6_0
100
AcDbLine
 10
48.4999
 20
228.1
 30
0.0
 11
48.50979999999999
 21
228.1
 31
0.0
  0
LINE
  5
D5
330
70
100
AcDbEntity
  8
팀플 평면 최종 v6_0
100
AcDbLine
 10
78.69979999999999
 20
228.1
 30
0.0
 11
78.69979999999999
 21
228.111
 31
0.0
  0
LINE
  5
D6
330
70
100
AcDbEntity
  8
팀플 평면 최종 v6_0
100
AcDbLine
 10
66.6694
 20
225.13
 30
0.0
 11
66.69970000000001
 21
225.184
 31
0.0
  0
LINE
  5
D7
330
70
100
AcDbEntity
  8
팀플 평면 최종 v6_0
100
AcDbLine
 10
90.617
 20
225.1
 30
0.0
 11
90.6709
 21
225.13
 31
0.0
  0
LINE
  5
D8
330
70
100
AcDbEntity
  8
팀플 평면 최종 v6_0
100
AcDbLine
 10
96.49990000000002
 20
228.1
 30
0.0
 11
96.5094
 21
228.1
 31
0.0
  0
LINE
  5
D9
330
70
100
AcDbEntity
  8
팀플 평면 최종 v6_0
100
AcDbLine
 10
30.5993
 20
225.1
 30
0.0
 11
30.61590000000001
 21
225.1
 31
0.0
  0
LINE
  5
DA
330
70
100
AcDbEntity
  8
팀플 평면 최종 v6_0
100
AcDbLine
 10
42.69989999999999
 20
228.1
 30
0.0
 11
42.69989999999999
 21
228.111
 31
0.0
  0
LINE
  5
DB
330
70
100
AcDbEntity
  8
팀플 평면 최종 v6_0
100
AcDbLine
 10
24.5415
 20
228.115
 30
0.0
 11
24.5374
 21
228.138
 31
0.0
  0
LINE
  5
DC
330
70
100
AcDbEntity
  8
팀플 평면 최종 v6_0
100
AcDbLine
 10
42.69989999999999
 20
225.2
 30
0.0
 11
42.69989999999999
 21
228.1
 31
0.0
  0
LINE
  5
DD
330
70
100
AcDbEntity
  8
팀플 평면 최종 v6_0
100
AcDbLine
 10
48.51399999999999
 20
228.142
 30
0.0
 11
48.4999
 21
228.111
 31
0.0
  0
LINE
  5
DE
330
70
100
AcDbEntity
  8
팀플 평면 최종 v6_0
100
AcDbLine
 10
42.6007
 20
225.1
 30
0.0
 11
42.6173
 21
225.1
 31
0.0
  0
LINE
  5
DF
330
70
100
AcDbEntity
  8
팀플 평면 최종 v6_0
100
AcDbLine
 10
24.5374
 20
228.138
 30
0.0
 11
24.5139
 21
228.142
 31
0.0
  0
LINE
  5
E0
330
70
100
AcDbEntity
  8
팀플 평면 최종 v6_0
100
AcDbLine
 10
24.5098
 20
228.1
 30
0.0
 11
24.5415
 21
228.115
 31
0.0
  0
LINE
  5
E1
330
70
100
AcDbEntity
  8
팀플 평면 최종 v6_0
100
AcDbLine
 10
66.61570000000001
 20
225.1
 30
0.0
 11
66.6694
 21
225.13
 31
0.0
  0
LINE
  5
E2
330
70
100
AcDbEntity
  8
팀플 평면 최종 v6_0
100
AcDbLine
 10
60.5
 20
228.1
 30
0.0
 11
60.5
 21
225.2
 31
0.0
  0
LINE
  5
E3
330
70
100
AcDbEntity
  8
팀플 평면 최종 v6_0
100
AcDbLine
 10
60.6005
 20
225.1
 30
0.0
 11
66.59919999999999
 21
225.1
 31
0.0
  0
LINE
  5
E4
330
70
100
AcDbEntity
  8
팀플 평면 최종 v6_0
100
AcDbLine
 10
78.69979999999999
 20
228.1
 30
0.0
 11
84.4998
 21
228.1
 31
0.0
  0
LINE
  5
E5
330
70
100
AcDbEntity
  8
팀플 평면 최종 v6_0
100
AcDbLine
 10
42.6628
 20
228.138
 30
0.0
 11
42.6572
 21
228.115
 31
0.0
  0
LINE
  5
E6
330
70
100
AcDbEntity
  8
팀플 평면 최종 v6_0
100
AcDbLine
 10
48.5373
 20
228.138
 30
0.0
 11
48.51399999999999
 21
228.142
 31
0.0
  0
LINE
  5
E7
330
70
100
AcDbEntity
  8
팀플 평면 최종 v6_0
100
AcDbLine
 10
24.50010000000001
 20
225.2
 30
0.0
 11
24.50010000000001
 21
225.184
 31
0.0
  0
LINE
  5
E8
330
70
100
AcDbEntity
  8
팀플 평면 최종 v6_0
100
AcDbLine
 10
66.59919999999999
 20
225.1
 30
0.0
 11
66.61570000000001
 21
225.1
 31
0.0
  0
LINE
  5
E9
330
70
100
AcDbEntity
  8
팀플 평면 최종 v6_0
100
AcDbLine
 10
54.7
 20
228.1
 30
0.0
 11
60.5
 21
228.1
 31
0.0
  0
LINE
  5
EA
330
70
100
AcDbEntity
  8
팀플 평면 최종 v6_0
100
AcDbLine
 10
36.5813
 20
225.1
 30
0.0
 11
36.5993
 21
225.1
 31
0.0
  0
LINE
  5
EB
330
70
100
AcDbEntity
  8
팀플 평면 최종 v6_0
100
AcDbLine
 10
78.6846
 20
228.142
 30
0.0
 11
78.66240000000001
 21
228.138
 31
0.0
  0
LINE
  5
EC
330
70
100
AcDbEntity
  8
팀플 평면 최종 v6_0
100
AcDbLine
 10
96.5137
 20
228.142
 30
0.0
 11
96.49990000000002
 21
228.111
 31
0.0
  0
LINE
  5
ED
330
70
100
AcDbEntity
  8
팀플 평면 최종 v6_0
100
AcDbLine
 10
78.65709999999999
 20
228.115
 30
0.0
 11
78.68880000000001
 21
228.1
 31
0.0
  0
LINE
  5
EE
330
70
100
AcDbEntity
  8
팀플 평면 최종 v6_0
100
AcDbLine
 10
120.5
 20
228.1
 30
0.0
 11
120.5
 21
225.2
 31
0.0
  0
LINE
  5
EF
330
70
100
AcDbEntity
  8
팀플 평면 최종 v6_0
100
AcDbLine
 10
114.662
 20
228.138
 30
0.0
 11
114.657
 21
228.115
 31
0.0
  0
LINE
  5
F0
330
70
100
AcDbEntity
  8
팀플 평면 최종 v6_0
100
AcDbLine
 10
84.50969999999999
 20
228.1
 30
0.0
 11
84.5414
 21
228.115
 31
0.0
  0
LINE
  5
F1
330
70
100
AcDbEntity
  8
팀플 평면 최종 v6_0
100
AcDbLine
 10
108.601
 20
225.1
 30
0.0
 11
114.601
 21
225.1
 31
0.0
  0
LINE
  5
F2
330
70
100
AcDbEntity
  8
팀플 평면 최종 v6_0
100
AcDbLine
 10
126.6
 20
225.1
 30
0.0
 11
126.617
 21
225.1
 31
0.0
  0
LINE
  5
F3
330
70
100
AcDbEntity
  8
팀플 평면 최종 v6_0
100
AcDbLine
 10
60.5413
 20
228.115
 30
0.0
 11
60.53740000000001
 21
228.138
 31
0.0
  0
LINE
  5
F4
330
70
100
AcDbEntity
  8
팀플 평면 최종 v6_0
100
AcDbLine
 10
84.4998
 20
228.1
 30
0.0
 11
84.4998
 21
225.2
 31
0.0
  0
LINE
  5
F5
330
70
100
AcDbEntity
  8
팀플 평면 최종 v6_0
100
AcDbLine
 10
78.68880000000001
 20
228.1
 30
0.0
 11
78.69980000000001
 21
228.1
 31
0.0
  0
LINE
  5
F6
330
70
100
AcDbEntity
  8
팀플 평면 최종 v6_0
100
AcDbLine
 10
54.7
 20
225.184
 30
0.0
 11
54.7
 21
225.2
 31
0.0
  0
LINE
  5
F7
330
70
100
AcDbEntity
  8
팀플 평면 최종 v6_0
100
AcDbLine
 10
96.49990000000002
 20
225.184
 30
0.0
 11
96.52880000000003
 21
225.13
 31
0.0
  0
LINE
  5
F8
330
70
100
AcDbEntity
  8
팀플 평면 최종 v6_0
100
AcDbLine
 10
78.66240000000002
 20
228.138
 30
0.0
 11
78.65710000000001
 21
228.115
 31
0.0
  0
LINE
  5
F9
330
70
100
AcDbEntity
  8
팀플 평면 최종 v6_0
100
AcDbLine
 10
90.60039999999998
 20
225.1
 30
0.0
 11
90.617
 21
225.1
 31
0.0
  0
LINE
  5
FA
330
70
100
AcDbEntity
  8
팀플 평면 최종 v6_0
100
AcDbLine
 10
84.60069999999999
 20
225.1
 30
0.0
 11
90.60039999999998
 21
225.1
 31
0.0
  0
LINE
  5
FB
330
70
100
AcDbEntity
  8
팀플 평면 최종 v6_0
100
AcDbLine
 10
108.529
 20
225.13
 30
0.0
 11
108.583
 21
225.1
 31
0.0
  0
LINE
  5
FC
330
70
100
AcDbEntity
  8
팀플 평면 최종 v6_0
100
AcDbLine
 10
54.6171
 20
225.1
 30
0.0
 11
54.67100000000002
 21
225.13
 31
0.0
  0
LINE
  5
FD
330
70
100
AcDbEntity
  8
팀플 평면 최종 v6_0
100
AcDbLine
 10
42.68469999999999
 20
228.142
 30
0.0
 11
42.6628
 21
228.138
 31
0.0
  0
LINE
  5
FE
330
70
100
AcDbEntity
  8
팀플 평면 최종 v6_0
100
AcDbLine
 10
84.4998
 20
228.1
 30
0.0
 11
84.50969999999999
 21
228.1
 31
0.0
  0
LINE
  5
FF
330
70
100
AcDbEntity
  8
팀플 평면 최종 v6_0
100
AcDbLine
 10
102.6
 20
225.1
 30
0.0
 11
102.617
 21
225.1
 31
0.0
  0
LINE
  5
100
330
70
100
AcDbEntity
  8
팀플 평면 최종 v6_0
100
AcDbLine
 10
42.6572
 20
228.115
 30
0.0
 11
42.6889
 21
228.1
 31
0.0
  0
LINE
  5
101
330
70
100
AcDbEntity
  8
팀플 평면 최종 v6_0
100
AcDbLine
 10
66.69970000000001
 20
228.1
 30
0.0
 11
66.69970000000001
 21
228.111
 31
0.0
  0
LINE
  5
102
330
70
100
AcDbEntity
  8
팀플 평면 최종 v6_0
100
AcDbLine
 10
78.6007
 20
225.1
 30
0.0
 11
78.6172
 21
225.1
 31
0.0
  0
LINE
  5
103
330
70
100
AcDbEntity
  8
팀플 평면 최종 v6_0
100
AcDbLine
 10
54.6573
 20
228.115
 30
0.0
 11
54.68869999999999
 21
228.1
 31
0.0
  0
LINE
  5
104
330
70
100
AcDbEntity
  8
팀플 평면 최종 v6_0
100
AcDbLine
 10
60.5095
 20
228.1
 30
0.0
 11
60.5413
 21
228.115
 31
0.0
  0
LINE
  5
105
330
70
100
AcDbEntity
  8
팀플 평면 최종 v6_0
100
AcDbLine
 10
120.541
 20
228.115
 30
0.0
 11
120.537
 21
228.138
 31
0.0
  0
LINE
  5
106
330
70
100
AcDbEntity
  8
팀플 평면 최종 v6_0
100
AcDbLine
 10
78.69979999999999
 20
225.2
 30
0.0
 11
78.69979999999999
 21
228.1
 31
0.0
  0
LINE
  5
107
330
70
100
AcDbEntity
  8
팀플 평면 최종 v6_0
100
AcDbLine
 10
114.657
 20
228.115
 30
0.0
 11
114.689
 21
228.1
 31
0.0
  0
LINE
  5
108
330
70
100
AcDbEntity
  8
팀플 평면 최종 v6_0
100
AcDbLine
 10
48.50979999999999
 20
228.1
 30
0.0
 11
48.5415
 21
228.115
 31
0.0
  0
LINE
  5
109
330
70
100
AcDbEntity
  8
팀플 평면 최종 v6_0
100
AcDbLine
 10
72.5413
 20
228.115
 30
0.0
 11
72.53709999999999
 21
228.138
 31
0.0
  0
LINE
  5
10A
330
70
100
AcDbEntity
  8
팀플 평면 최종 v6_0
100
AcDbLine
 10
90.69990000000002
 20
225.184
 30
0.0
 11
90.69990000000002
 21
225.2
 31
0.0
  0
LINE
  5
10B
330
70
100
AcDbEntity
  8
팀플 평면 최종 v6_0
100
AcDbLine
 10
72.529
 20
225.13
 30
0.0
 11
72.58259999999999
 21
225.1
 31
0.0
  0
LINE
  5
10C
330
70
100
AcDbEntity
  8
팀플 평면 최종 v6_0
100
AcDbLine
 10
96.49990000000002
 20
225.2
 30
0.0
 11
96.49990000000002
 21
225.184
 31
0.0
  0
LINE
  5
10D
330
70
100
AcDbEntity
  8
팀플 평면 최종 v6_0
100
AcDbLine
 10
48.52920000000001
 20
225.13
 30
0.0
 11
48.5828
 21
225.1
 31
0.0
  0
LINE
  5
10E
330
70
100
AcDbEntity
  8
팀플 평면 최종 v6_0
100
AcDbLine
 10
114.7
 20
228.1
 30
0.0
 11
114.7
 21
228.111
 31
0.0
  0
LINE
  5
10F
330
70
100
AcDbEntity
  8
팀플 평면 최종 v6_0
100
AcDbLine
 10
72.51380000000001
 20
228.142
 30
0.0
 11
72.5001
 21
228.111
 31
0.0
  0
LINE
  5
110
330
70
100
AcDbEntity
  8
팀플 평면 최종 v6_0
100
AcDbLine
 10
36.5291
 20
225.13
 30
0.0
 11
36.5813
 21
225.1
 31
0.0
  0
LINE
  5
111
330
70
100
AcDbEntity
  8
팀플 평면 최종 v6_0
100
AcDbLine
 10
42.69989999999999
 20
225.184
 30
0.0
 11
42.69989999999999
 21
225.2
 31
0.0
  0
LINE
  5
112
330
70
100
AcDbEntity
  8
팀플 평면 최종 v6_0
100
AcDbLine
 10
60.53740000000001
 20
228.138
 30
0.0
 11
60.51370000000001
 21
228.142
 31
0.0
  0
LINE
  5
113
330
70
100
AcDbEntity
  8
팀플 평면 최종 v6_0
100
AcDbLine
 10
90.6568
 20
228.115
 30
0.0
 11
90.68859999999999
 21
228.1
 31
0.0
  0
LINE
  5
114
330
70
100
AcDbEntity
  8
팀플 평면 최종 v6_0
100
AcDbLine
 10
78.69979999999999
 20
228.111
 30
0.0
 11
78.6846
 21
228.142
 31
0.0
  0
LINE
  5
115
330
70
100
AcDbEntity
  8
팀플 평면 최종 v6_0
100
AcDbLine
 10
72.5001
 20
228.1
 30
0.0
 11
72.5001
 21
225.2
 31
0.0
  0
LINE
  5
116
330
70
100
AcDbEntity
  8
팀플 평면 최종 v6_0
100
AcDbLine
 10
78.6172
 20
225.1
 30
0.0
 11
78.67090000000001
 21
225.13
 31
0.0
  0
LINE
  5
117
330
70
100
AcDbEntity
  8
팀플 평면 최종 v6_0
100
AcDbLine
 10
66.68449999999999
 20
228.142
 30
0.0
 11
66.66119999999999
 21
228.138
 31
0.0
  0
LINE
  5
118
330
70
100
AcDbEntity
  8
팀플 평면 최종 v6_0
100
AcDbLine
 10
90.69990000000002
 20
228.1
 30
0.0
 11
96.49990000000002
 21
228.1
 31
0.0
  0
LINE
  5
119
330
70
100
AcDbEntity
  8
팀플 평면 최종 v6_0
100
AcDbLine
 10
84.4998
 20
225.2
 30
0.0
 11
84.4998
 21
225.184
 31
0.0
  0
LINE
  5
11A
330
70
100
AcDbEntity
  8
팀플 평면 최종 v6_0
100
AcDbLine
 10
90.68470000000003
 20
228.142
 30
0.0
 11
90.66250000000001
 21
228.138
 31
0.0
  0
LINE
  5
11B
330
70
100
AcDbEntity
  8
팀플 평면 최종 v6_0
100
AcDbLine
 10
72.5001
 20
225.2
 30
0.0
 11
72.5001
 21
225.184
 31
0.0
  0
LINE
  5
11C
330
70
100
AcDbEntity
  8
팀플 평면 최종 v6_0
100
AcDbLine
 10
102.684
 20
228.142
 30
0.0
 11
102.663
 21
228.138
 31
0.0
  0
LINE
  5
11D
330
70
100
AcDbEntity
  8
팀플 평면 최종 v6_0
100
AcDbLine
 10
36.5139
 20
228.142
 30
0.0
 11
36.5002
 21
228.111
 31
0.0
  0
LINE
  5
11E
330
70
100
AcDbEntity
  8
팀플 평면 최종 v6_0
100
AcDbLine
 10
72.5001
 20
228.111
 30
0.0
 11
72.5001
 21
228.1
 31
0.0
  0
LINE
  5
11F
330
70
100
AcDbEntity
  8
팀플 평면 최종 v6_0
100
AcDbLine
 10
90.6625
 20
228.138
 30
0.0
 11
90.6568
 21
228.115
 31
0.0
  0
LINE
  5
120
330
70
100
AcDbEntity
  8
팀플 평면 최종 v6_0
100
AcDbLine
 10
54.6848
 20
228.142
 30
0.0
 11
54.6626
 21
228.138
 31
0.0
  0
LINE
  5
121
330
70
100
AcDbEntity
  8
팀플 평면 최종 v6_0
100
AcDbLine
 10
72.5001
 20
228.1
 30
0.0
 11
72.5096
 21
228.1
 31
0.0
  0
LINE
  5
122
330
70
100
AcDbEntity
  8
팀플 평면 최종 v6_0
100
AcDbLine
 10
102.657
 20
228.115
 30
0.0
 11
102.689
 21
228.1
 31
0.0
  0
LINE
  5
123
330
70
100
AcDbEntity
  8
팀플 평면 최종 v6_0
100
AcDbLine
 10
96.5094
 20
228.1
 30
0.0
 11
96.5412
 21
228.115
 31
0.0
  0
LINE
  5
124
330
70
100
AcDbEntity
  8
팀플 평면 최종 v6_0
100
AcDbLine
 10
66.6888
 20
228.1
 30
0.0
 11
66.69970000000001
 21
228.1
 31
0.0
  0
LINE
  5
125
330
70
100
AcDbEntity
  8
팀플 평면 최종 v6_0
100
AcDbLine
 10
54.68869999999999
 20
228.1
 30
0.0
 11
54.7
 21
228.1
 31
0.0
  0
LINE
  5
126
330
70
100
AcDbEntity
  8
팀플 평면 최종 v6_0
100
AcDbLine
 10
48.5828
 20
225.1
 30
0.0
 11
48.60079999999999
 21
225.1
 31
0.0
  0
LINE
  5
127
330
70
100
AcDbEntity
  8
팀플 평면 최종 v6_0
100
AcDbLine
 10
54.7
 20
445.22
 30
0.0
 11
54.67100000000001
 21
445.273
 31
0.0
  0
LINE
  5
128
330
70
100
AcDbEntity
  8
팀플 평면 최종 v6_0
100
AcDbLine
 10
66.61570000000001
 20
445.301
 30
0.0
 11
66.59919999999999
 21
445.301
 31
0.0
  0
LINE
  5
129
330
70
100
AcDbEntity
  8
팀플 평면 최종 v6_0
100
AcDbLine
 10
48.4999
 20
445.22
 30
0.0
 11
48.4999
 21
445.1979999999999
 31
0.0
  0
LINE
  5
12A
330
70
100
AcDbEntity
  8
팀플 평면 최종 v6_0
100
AcDbLine
 10
72.5096
 20
442.302
 30
0.0
 11
72.5001
 21
442.302
 31
0.0
  0
LINE
  5
12B
330
70
100
AcDbEntity
  8
팀플 평면 최종 v6_0
100
AcDbLine
 10
114.617
 20
445.301
 30
0.0
 11
114.601
 21
445.301
 31
0.0
  0
LINE
  5
12C
330
70
100
AcDbEntity
  8
팀플 평면 최종 v6_0
100
AcDbLine
 10
72.5001
 20
442.2919999999999
 30
0.0
 11
72.51380000000001
 21
442.26
 31
0.0
  0
LINE
  5
12D
330
70
100
AcDbEntity
  8
팀플 평면 최종 v6_0
100
AcDbLine
 10
78.6007
 20
445.301
 30
0.0
 11
72.6006
 21
445.301
 31
0.0
  0
LINE
  5
12E
330
70
100
AcDbEntity
  8
팀플 평면 최종 v6_0
100
AcDbLine
 10
72.5001
 20
445.198
 30
0.0
 11
72.5001
 21
442.302
 31
0.0
  0
LINE
  5
12F
330
70
100
AcDbEntity
  8
팀플 평면 최종 v6_0
100
AcDbLine
 10
54.6848
 20
442.26
 30
0.0
 11
54.7
 21
442.2919999999999
 31
0.0
  0
LINE
  5
130
330
70
100
AcDbEntity
  8
팀플 평면 최종 v6_0
100
AcDbLine
 10
108.5
 20
445.22
 30
0.0
 11
108.5
 21
445.1979999999999
 31
0.0
  0
LINE
  5
131
330
70
100
AcDbEntity
  8
팀플 평면 최종 v6_0
100
AcDbLine
 10
60.5137
 20
442.26
 30
0.0
 11
60.5374
 21
442.263
 31
0.0
  0
LINE
  5
132
330
70
100
AcDbEntity
  8
팀플 평면 최종 v6_0
100
AcDbLine
 10
60.53740000000001
 20
442.263
 30
0.0
 11
60.5413
 21
442.2880000000001
 31
0.0
  0
LINE
  5
133
330
70
100
AcDbEntity
  8
팀플 평면 최종 v6_0
100
AcDbLine
 10
72.5001
 20
442.302
 30
0.0
 11
66.69970000000001
 21
442.302
 31
0.0
  0
LINE
  5
134
330
70
100
AcDbEntity
  8
팀플 평면 최종 v6_0
100
AcDbLine
 10
78.6172
 20
445.301
 30
0.0
 11
78.6007
 21
445.301
 31
0.0
  0
LINE
  5
135
330
70
100
AcDbEntity
  8
팀플 평면 최종 v6_0
100
AcDbLine
 10
60.58250000000001
 20
445.301
 30
0.0
 11
60.52890000000001
 21
445.273
 31
0.0
  0
LINE
  5
136
330
70
100
AcDbEntity
  8
팀플 평면 최종 v6_0
100
AcDbLine
 10
60.6005
 20
445.301
 30
0.0
 11
60.58250000000001
 21
445.301
 31
0.0
  0
LINE
  5
137
330
70
100
AcDbEntity
  8
팀플 평면 최종 v6_0
100
AcDbLine
 10
66.69970000000001
 20
442.302
 30
0.0
 11
66.6888
 21
442.302
 31
0.0
  0
LINE
  5
138
330
70
100
AcDbEntity
  8
팀플 평면 최종 v6_0
100
AcDbLine
 10
54.7
 20
442.2919999999999
 30
0.0
 11
54.7
 21
442.302
 31
0.0
  0
LINE
  5
139
330
70
100
AcDbEntity
  8
팀플 평면 최종 v6_0
100
AcDbLine
 10
54.60049999999999
 20
445.301
 30
0.0
 11
48.60079999999999
 21
445.301
 31
0.0
  0
LINE
  5
13A
330
70
100
AcDbEntity
  8
팀플 평면 최종 v6_0
100
AcDbLine
 10
66.6888
 20
442.302
 30
0.0
 11
66.657
 21
442.2880000000001
 31
0.0
  0
LINE
  5
13B
330
70
100
AcDbEntity
  8
팀플 평면 최종 v6_0
100
AcDbLine
 10
78.69979999999999
 20
442.302
 30
0.0
 11
78.69979999999999
 21
445.198
 31
0.0
  0
LINE
  5
13C
330
70
100
AcDbEntity
  8
팀플 평면 최종 v6_0
100
AcDbLine
 10
72.5001
 20
442.302
 30
0.0
 11
72.5001
 21
442.2919999999999
 31
0.0
  0
LINE
  5
13D
330
70
100
AcDbEntity
  8
팀플 평면 최종 v6_0
100
AcDbLine
 10
78.69979999999999
 20
445.198
 30
0.0
 11
78.69979999999999
 21
445.22
 31
0.0
  0
LINE
  5
13E
330
70
100
AcDbEntity
  8
팀플 평면 최종 v6_0
100
AcDbLine
 10
60.5413
 20
442.2880000000001
 30
0.0
 11
60.5095
 21
442.302
 31
0.0
  0
LINE
  5
13F
330
70
100
AcDbEntity
  8
팀플 평면 최종 v6_0
100
AcDbLine
 10
66.59919999999999
 20
445.301
 30
0.0
 11
60.6005
 21
445.301
 31
0.0
  0
LINE
  5
140
330
70
100
AcDbEntity
  8
팀플 평면 최종 v6_0
100
AcDbLine
 10
78.66240000000002
 20
442.263
 30
0.0
 11
78.68460000000002
 21
442.26
 31
0.0
  0
LINE
  5
141
330
70
100
AcDbEntity
  8
팀플 평면 최종 v6_0
100
AcDbLine
 10
96.5369
 20
442.263
 30
0.0
 11
96.5412
 21
442.2880000000001
 31
0.0
  0
LINE
  5
142
330
70
100
AcDbEntity
  8
팀플 평면 최종 v6_0
100
AcDbLine
 10
54.6573
 20
442.2880000000001
 30
0.0
 11
54.6626
 21
442.263
 31
0.0
  0
LINE
  5
143
330
70
100
AcDbEntity
  8
팀플 평면 최종 v6_0
100
AcDbLine
 10
60.5
 20
445.22
 30
0.0
 11
60.5
 21
445.1979999999999
 31
0.0
  0
LINE
  5
144
330
70
100
AcDbEntity
  8
팀플 평면 최종 v6_0
100
AcDbLine
 10
66.69970000000001
 20
445.198
 30
0.0
 11
66.69970000000001
 21
445.22
 31
0.0
  0
LINE
  5
145
330
70
100
AcDbEntity
  8
팀플 평면 최종 v6_0
100
AcDbLine
 10
48.60079999999999
 20
445.301
 30
0.0
 11
48.5828
 21
445.301
 31
0.0
  0
LINE
  5
146
330
70
100
AcDbEntity
  8
팀플 평면 최종 v6_0
100
AcDbLine
 10
96.49990000000002
 20
445.198
 30
0.0
 11
96.49990000000002
 21
442.302
 31
0.0
  0
LINE
  5
147
330
70
100
AcDbEntity
  8
팀플 평면 최종 v6_0
100
AcDbLine
 10
102.657
 20
442.2880000000001
 30
0.0
 11
102.663
 21
442.263
 31
0.0
  0
LINE
  5
148
330
70
100
AcDbEntity
  8
팀플 평면 최종 v6_0
100
AcDbLine
 10
54.7
 20
442.302
 30
0.0
 11
54.68869999999999
 21
442.302
 31
0.0
  0
LINE
  5
149
330
70
100
AcDbEntity
  8
팀플 평면 최종 v6_0
100
AcDbLine
 10
54.6171
 20
445.301
 30
0.0
 11
54.60049999999999
 21
445.301
 31
0.0
  0
LINE
  5
14A
330
70
100
AcDbEntity
  8
팀플 평면 최종 v6_0
100
AcDbLine
 10
66.69970000000001
 20
442.2919999999999
 30
0.0
 11
66.69970000000001
 21
442.302
 31
0.0
  0
LINE
  5
14B
330
70
100
AcDbEntity
  8
팀플 평면 최종 v6_0
100
AcDbLine
 10
66.6694
 20
445.273
 30
0.0
 11
66.61570000000001
 21
445.301
 31
0.0
  0
LINE
  5
14C
330
70
100
AcDbEntity
  8
팀플 평면 최종 v6_0
100
AcDbLine
 10
108.583
 20
445.301
 30
0.0
 11
108.529
 21
445.273
 31
0.0
  0
LINE
  5
14D
330
70
100
AcDbEntity
  8
팀플 평면 최종 v6_0
100
AcDbLine
 10
66.68449999999999
 20
442.26
 30
0.0
 11
66.69970000000001
 21
442.2919999999999
 31
0.0
  0
LINE
  5
14E
330
70
100
AcDbEntity
  8
팀플 평면 최종 v6_0
100
AcDbLine
 10
60.5095
 20
442.302
 30
0.0
 11
60.5
 21
442.302
 31
0.0
  0
LINE
  5
14F
330
70
100
AcDbEntity
  8
팀플 평면 최종 v6_0
100
AcDbLine
 10
48.4999
 20
442.302
 30
0.0
 11
42.69989999999999
 21
442.302
 31
0.0
  0
LINE
  5
150
330
70
100
AcDbEntity
  8
팀플 평면 최종 v6_0
100
AcDbLine
 10
54.6626
 20
442.263
 30
0.0
 11
54.6848
 21
442.26
 31
0.0
  0
LINE
  5
151
330
70
100
AcDbEntity
  8
팀플 평면 최종 v6_0
100
AcDbLine
 10
78.6846
 20
442.26
 30
0.0
 11
78.69979999999999
 21
442.2919999999999
 31
0.0
  0
LINE
  5
152
330
70
100
AcDbEntity
  8
팀플 평면 최종 v6_0
100
AcDbLine
 10
42.69989999999999
 20
442.302
 30
0.0
 11
42.68889999999999
 21
442.302
 31
0.0
  0
LINE
  5
153
330
70
100
AcDbEntity
  8
팀플 평면 최종 v6_0
100
AcDbLine
 10
72.5001
 20
445.22
 30
0.0
 11
72.5001
 21
445.1979999999999
 31
0.0
  0
LINE
  5
154
330
70
100
AcDbEntity
  8
팀플 평면 최종 v6_0
100
AcDbLine
 10
48.52920000000001
 20
445.273
 30
0.0
 11
48.4999
 21
445.22
 31
0.0
  0
LINE
  5
155
330
70
100
AcDbEntity
  8
팀플 평면 최종 v6_0
100
AcDbLine
 10
48.5828
 20
445.301
 30
0.0
 11
48.52920000000001
 21
445.273
 31
0.0
  0
LINE
  5
156
330
70
100
AcDbEntity
  8
팀플 평면 최종 v6_0
100
AcDbLine
 10
42.6695
 20
445.273
 30
0.0
 11
42.6173
 21
445.301
 31
0.0
  0
LINE
  5
157
330
70
100
AcDbEntity
  8
팀플 평면 최종 v6_0
100
AcDbLine
 10
54.7
 20
442.302
 30
0.0
 11
54.7
 21
445.198
 31
0.0
  0
LINE
  5
158
330
70
100
AcDbEntity
  8
팀플 평면 최종 v6_0
100
AcDbLine
 10
13.0004
 20
442.2179999999999
 30
0.0
 11
13.0004
 21
442.1999999999999
 31
0.0
  0
LINE
  5
159
330
70
100
AcDbEntity
  8
팀플 평면 최종 v6_0
100
AcDbLine
 10
60.5
 20
442.2919999999999
 30
0.0
 11
60.5137
 21
442.26
 31
0.0
  0
LINE
  5
15A
330
70
100
AcDbEntity
  8
팀플 평면 최종 v6_0
100
AcDbLine
 10
48.5373
 20
442.263
 30
0.0
 11
48.5415
 21
442.2880000000001
 31
0.0
  0
LINE
  5
15B
330
70
100
AcDbEntity
  8
팀플 평면 최종 v6_0
100
AcDbLine
 10
66.657
 20
442.2880000000001
 30
0.0
 11
66.66119999999999
 21
442.263
 31
0.0
  0
LINE
  5
15C
330
70
100
AcDbEntity
  8
팀플 평면 최종 v6_0
100
AcDbLine
 10
48.4999
 20
442.2919999999999
 30
0.0
 11
48.51399999999999
 21
442.26
 31
0.0
  0
LINE
  5
15D
330
70
100
AcDbEntity
  8
팀플 평면 최종 v6_0
100
AcDbLine
 10
60.5
 20
442.302
 30
0.0
 11
60.5
 21
442.2919999999999
 31
0.0
  0
LINE
  5
15E
330
70
100
AcDbEntity
  8
팀플 평면 최종 v6_0
100
AcDbLine
 10
66.69970000000001
 20
442.302
 30
0.0
 11
66.69970000000001
 21
445.198
 31
0.0
  0
LINE
  5
15F
330
70
100
AcDbEntity
  8
팀플 평면 최종 v6_0
100
AcDbLine
 10
78.69979999999999
 20
442.2919999999999
 30
0.0
 11
78.69979999999999
 21
442.302
 31
0.0
  0
LINE
  5
160
330
70
100
AcDbEntity
  8
팀플 평면 최종 v6_0
100
AcDbLine
 10
72.53709999999999
 20
442.263
 30
0.0
 11
72.5413
 21
442.2880000000001
 31
0.0
  0
LINE
  5
161
330
70
100
AcDbEntity
  8
팀플 평면 최종 v6_0
100
AcDbLine
 10
30.6889
 20
442.302
 30
0.0
 11
30.65720000000001
 21
442.2880000000001
 31
0.0
  0
LINE
  5
162
330
70
100
AcDbEntity
  8
팀플 평면 최종 v6_0
100
AcDbLine
 10
13.0004
 20
410.2909999999999
 30
0.0
 11
13.0142
 21
410.2590000000001
 31
0.0
  0
LINE
  5
163
330
70
100
AcDbEntity
  8
팀플 평면 최종 v6_0
100
AcDbLine
 10
60.5
 20
442.302
 30
0.0
 11
54.7
 21
442.302
 31
0.0
  0
LINE
  5
164
330
70
100
AcDbEntity
  8
팀플 평면 최종 v6_0
100
AcDbLine
 10
13.0418
 20
422.2859999999999
 30
0.0
 11
13.0101
 21
422.3
 31
0.0
  0
LINE
  5
165
330
70
100
AcDbEntity
  8
팀플 평면 최종 v6_0
100
AcDbLine
 10
24.50010000000001
 20
445.22
 30
0.0
 11
24.50010000000001
 21
445.1979999999999
 31
0.0
  0
LINE
  5
166
330
70
100
AcDbEntity
  8
팀플 평면 최종 v6_0
100
AcDbLine
 10
72.529
 20
445.273
 30
0.0
 11
72.5001
 21
445.22
 31
0.0
  0
LINE
  5
167
330
70
100
AcDbEntity
  8
팀플 평면 최종 v6_0
100
AcDbLine
 10
24.5139
 20
442.26
 30
0.0
 11
24.5374
 21
442.263
 31
0.0
  0
LINE
  5
168
330
70
100
AcDbEntity
  8
팀플 평면 최종 v6_0
100
AcDbLine
 10
24.50010000000001
 20
442.302
 30
0.0
 11
13.0996
 21
442.302
 31
0.0
  0
LINE
  5
169
330
70
100
AcDbEntity
  8
팀플 평면 최종 v6_0
100
AcDbLine
 10
10.0996
 20
434.301
 30
0.0
 11
10.0817
 21
434.301
 31
0.0
  0
LINE
  5
16A
330
70
100
AcDbEntity
  8
팀플 평면 최종 v6_0
100
AcDbLine
 10
54.67100000000002
 20
445.273
 30
0.0
 11
54.6171
 21
445.301
 31
0.0
  0
LINE
  5
16B
330
70
100
AcDbEntity
  8
팀플 평면 최종 v6_0
100
AcDbLine
 10
72.6006
 20
445.301
 30
0.0
 11
72.58259999999999
 21
445.301
 31
0.0
  0
LINE
  5
16C
330
70
100
AcDbEntity
  8
팀플 평면 최종 v6_0
100
AcDbLine
 10
54.7
 20
445.198
 30
0.0
 11
54.7
 21
445.22
 31
0.0
  0
LINE
  5
16D
330
70
100
AcDbEntity
  8
팀플 평면 최종 v6_0
100
AcDbLine
 10
42.68889999999999
 20
442.302
 30
0.0
 11
42.6572
 21
442.2880000000001
 31
0.0
  0
LINE
  5
16E
330
70
100
AcDbEntity
  8
팀플 평면 최종 v6_0
100
AcDbLine
 10
60.52890000000001
 20
445.273
 30
0.0
 11
60.5
 21
445.22
 31
0.0
  0
LINE
  5
16F
330
70
100
AcDbEntity
  8
팀플 평면 최종 v6_0
100
AcDbLine
 10
72.51380000000001
 20
442.26
 30
0.0
 11
72.53709999999999
 21
442.263
 31
0.0
  0
LINE
  5
170
330
70
100
AcDbEntity
  8
팀플 평면 최종 v6_0
100
AcDbLine
 10
36.5291
 20
445.273
 30
0.0
 11
36.5002
 21
445.22
 31
0.0
  0
LINE
  5
171
330
70
100
AcDbEntity
  8
팀플 평면 최종 v6_0
100
AcDbLine
 10
72.5413
 20
442.2880000000001
 30
0.0
 11
72.5096
 21
442.302
 31
0.0
  0
LINE
  5
172
330
70
100
AcDbEntity
  8
팀플 평면 최종 v6_0
100
AcDbLine
 10
36.5002
 20
442.2919999999999
 30
0.0
 11
36.5139
 21
442.26
 31
0.0
  0
LINE
  5
173
330
70
100
AcDbEntity
  8
팀플 평면 최종 v6_0
100
AcDbLine
 10
66.66119999999999
 20
442.263
 30
0.0
 11
66.68449999999999
 21
442.26
 31
0.0
  0
LINE
  5
174
330
70
100
AcDbEntity
  8
팀플 평면 최종 v6_0
100
AcDbLine
 10
30.66140000000001
 20
442.263
 30
0.0
 11
30.6848
 21
442.26
 31
0.0
  0
LINE
  5
175
330
70
100
AcDbEntity
  8
팀플 평면 최종 v6_0
100
AcDbLine
 10
54.68869999999999
 20
442.302
 30
0.0
 11
54.6573
 21
442.2880000000001
 31
0.0
  0
LINE
  5
176
330
70
100
AcDbEntity
  8
팀플 평면 최종 v6_0
100
AcDbLine
 10
36.5414
 20
442.2880000000001
 30
0.0
 11
36.5097
 21
442.302
 31
0.0
  0
LINE
  5
177
330
70
100
AcDbEntity
  8
팀플 평면 최종 v6_0
100
AcDbLine
 10
13.0376
 20
434.2619999999999
 30
0.0
 11
13.0418
 21
434.2869999999999
 31
0.0
  0
LINE
  5
178
330
70
100
AcDbEntity
  8
팀플 평면 최종 v6_0
100
AcDbLine
 10
42.6007
 20
445.301
 30
0.0
 11
36.5993
 21
445.301
 31
0.0
  0
LINE
  5
179
330
70
100
AcDbEntity
  8
팀플 평면 최종 v6_0
100
AcDbLine
 10
42.69989999999999
 20
442.302
 30
0.0
 11
42.69989999999999
 21
445.198
 31
0.0
  0
LINE
  5
17A
330
70
100
AcDbEntity
  8
팀플 평면 최종 v6_0
100
AcDbLine
 10
36.5002
 20
442.302
 30
0.0
 11
36.5002
 21
442.2919999999999
 31
0.0
  0
LINE
  5
17B
330
70
100
AcDbEntity
  8
팀플 평면 최종 v6_0
100
AcDbLine
 10
24.5415
 20
442.2880000000001
 30
0.0
 11
24.5098
 21
442.302
 31
0.0
  0
LINE
  5
17C
330
70
100
AcDbEntity
  8
팀플 평면 최종 v6_0
100
AcDbLine
 10
30.69990000000001
 20
442.302
 30
0.0
 11
30.68890000000001
 21
442.302
 31
0.0
  0
LINE
  5
17D
330
70
100
AcDbEntity
  8
팀플 평면 최종 v6_0
100
AcDbLine
 10
60.5
 20
445.198
 30
0.0
 11
60.5
 21
442.302
 31
0.0
  0
LINE
  5
17E
330
70
100
AcDbEntity
  8
팀플 평면 최종 v6_0
100
AcDbLine
 10
78.69979999999999
 20
445.22
 30
0.0
 11
78.67090000000001
 21
445.273
 31
0.0
  0
LINE
  5
17F
330
70
100
AcDbEntity
  8
팀플 평면 최종 v6_0
100
AcDbLine
 10
13.0004
 20
442.1999999999999
 30
0.0
 11
13.0004
 21
434.301
 31
0.0
  0
LINE
  5
180
330
70
100
AcDbEntity
  8
팀플 평면 최종 v6_0
100
AcDbLine
 10
24.50010000000001
 20
442.2919999999999
 30
0.0
 11
24.5139
 21
442.26
 31
0.0
  0
LINE
  5
181
330
70
100
AcDbEntity
  8
팀플 평면 최종 v6_0
100
AcDbLine
 10
78.65709999999999
 20
442.2880000000001
 30
0.0
 11
78.66240000000002
 21
442.263
 31
0.0
  0
LINE
  5
182
330
70
100
AcDbEntity
  8
팀플 평면 최종 v6_0
100
AcDbLine
 10
78.68880000000001
 20
442.302
 30
0.0
 11
78.65710000000001
 21
442.2880000000001
 31
0.0
  0
LINE
  5
183
330
70
100
AcDbEntity
  8
팀플 평면 최종 v6_0
100
AcDbLine
 10
66.69970000000001
 20
445.22
 30
0.0
 11
66.6694
 21
445.273
 31
0.0
  0
LINE
  5
184
330
70
100
AcDbEntity
  8
팀플 평면 최종 v6_0
100
AcDbLine
 10
42.69989999999999
 20
442.2919999999999
 30
0.0
 11
42.69989999999999
 21
442.302
 31
0.0
  0
LINE
  5
185
330
70
100
AcDbEntity
  8
팀플 평면 최종 v6_0
100
AcDbLine
 10
30.5993
 20
445.301
 30
0.0
 11
24.5994
 21
445.301
 31
0.0
  0
LINE
  5
186
330
70
100
AcDbEntity
  8
팀플 평면 최종 v6_0
100
AcDbLine
 10
78.67090000000001
 20
445.273
 30
0.0
 11
78.61720000000001
 21
445.301
 31
0.0
  0
LINE
  5
187
330
70
100
AcDbEntity
  8
팀플 평면 최종 v6_0
100
AcDbLine
 10
78.69979999999999
 20
442.302
 30
0.0
 11
78.6888
 21
442.302
 31
0.0
  0
LINE
  5
188
330
70
100
AcDbEntity
  8
팀플 평면 최종 v6_0
100
AcDbLine
 10
72.58259999999999
 20
445.301
 30
0.0
 11
72.529
 21
445.273
 31
0.0
  0
LINE
  5
189
330
70
100
AcDbEntity
  8
팀플 평면 최종 v6_0
100
AcDbLine
 10
30.6696
 20
445.273
 30
0.0
 11
30.61590000000001
 21
445.301
 31
0.0
  0
LINE
  5
18A
330
70
100
AcDbEntity
  8
팀플 평면 최종 v6_0
100
AcDbLine
 10
10.0294
 20
404.1319999999999
 30
0.0
 11
10.0817
 21
404.1
 31
0.0
  0
LINE
  5
18B
330
70
100
AcDbEntity
  8
팀플 평면 최종 v6_0
100
AcDbLine
 10
10.0004
 20
416.2
 30
0.0
 11
10.0004
 21
416.183
 31
0.0
  0
LINE
  5
18C
330
70
100
AcDbEntity
  8
팀플 평면 최종 v6_0
100
AcDbLine
 10
13.0004
 20
410.298
 30
0.0
 11
13.0004
 21
410.2909999999999
 31
0.0
  0
LINE
  5
18D
330
70
100
AcDbEntity
  8
팀플 평면 최종 v6_0
100
AcDbLine
 10
13.0142
 20
428.1419999999999
 30
0.0
 11
13.0004
 21
428.1100000000001
 31
0.0
  0
LINE
  5
18E
330
70
100
AcDbEntity
  8
팀플 평면 최종 v6_0
100
AcDbLine
 10
13.0004
 20
416.101
 30
0.0
 11
13.0004
 21
410.298
 31
0.0
  0
LINE
  5
18F
330
70
100
AcDbEntity
  8
팀플 평면 최종 v6_0
100
AcDbLine
 10
36.5002
 20
445.198
 30
0.0
 11
36.5002
 21
442.302
 31
0.0
  0
LINE
  5
190
330
70
100
AcDbEntity
  8
팀플 평면 최종 v6_0
100
AcDbLine
 10
48.51399999999999
 20
442.26
 30
0.0
 11
48.5373
 21
442.263
 31
0.0
  0
LINE
  5
191
330
70
100
AcDbEntity
  8
팀플 평면 최종 v6_0
100
AcDbLine
 10
30.65720000000001
 20
442.2880000000001
 30
0.0
 11
30.66140000000001
 21
442.263
 31
0.0
  0
LINE
  5
192
330
70
100
AcDbEntity
  8
팀플 평면 최종 v6_0
100
AcDbLine
 10
10.0817
 20
422.3
 30
0.0
 11
10.0294
 21
422.271
 31
0.0
  0
LINE
  5
193
330
70
100
AcDbEntity
  8
팀플 평면 최종 v6_0
100
AcDbLine
 10
24.5374
 20
442.263
 30
0.0
 11
24.5415
 21
442.2880000000001
 31
0.0
  0
LINE
  5
194
330
70
100
AcDbEntity
  8
팀플 평면 최종 v6_0
100
AcDbLine
 10
42.69989999999999
 20
445.22
 30
0.0
 11
42.6695
 21
445.273
 31
0.0
  0
LINE
  5
195
330
70
100
AcDbEntity
  8
팀플 평면 최종 v6_0
100
AcDbLine
 10
13.0418
 20
404.1140000000001
 30
0.0
 11
13.0376
 21
404.139
 31
0.0
  0
LINE
  5
196
330
70
100
AcDbEntity
  8
팀플 평면 최종 v6_0
100
AcDbLine
 10
13.0004
 20
434.291
 30
0.0
 11
13.0142
 21
434.259
 31
0.0
  0
LINE
  5
197
330
70
100
AcDbEntity
  8
팀플 평면 최종 v6_0
100
AcDbLine
 10
48.4999
 20
442.302
 30
0.0
 11
48.4999
 21
442.2919999999999
 31
0.0
  0
LINE
  5
198
330
70
100
AcDbEntity
  8
팀플 평면 최종 v6_0
100
AcDbLine
 10
42.6173
 20
445.301
 30
0.0
 11
42.6007
 21
445.301
 31
0.0
  0
LINE
  5
199
330
70
100
AcDbEntity
  8
팀플 평면 최종 v6_0
100
AcDbLine
 10
13.0294
 20
442.27
 30
0.0
 11
13.0004
 21
442.2179999999999
 31
0.0
  0
LINE
  5
19A
330
70
100
AcDbEntity
  8
팀플 평면 최종 v6_0
100
AcDbLine
 10
48.50979999999999
 20
442.302
 30
0.0
 11
48.4999
 21
442.302
 31
0.0
  0
LINE
  5
19B
330
70
100
AcDbEntity
  8
팀플 평면 최종 v6_0
100
AcDbLine
 10
13.0004
 20
410.298
 30
0.0
 11
10.0996
 21
410.298
 31
0.0
  0
LINE
  5
19C
330
70
100
AcDbEntity
  8
팀플 평면 최종 v6_0
100
AcDbLine
 10
36.5372
 20
442.263
 30
0.0
 11
36.5414
 21
442.2880000000001
 31
0.0
  0
LINE
  5
19D
330
70
100
AcDbEntity
  8
팀플 평면 최종 v6_0
100
AcDbLine
 10
42.68469999999999
 20
442.26
 30
0.0
 11
42.69989999999999
 21
442.2919999999999
 31
0.0
  0
LINE
  5
19E
330
70
100
AcDbEntity
  8
팀플 평면 최종 v6_0
100
AcDbLine
 10
13.0418
 20
398.286
 30
0.0
 11
13.0101
 21
398.3000000000001
 31
0.0
  0
LINE
  5
19F
330
70
100
AcDbEntity
  8
팀플 평면 최종 v6_0
100
AcDbLine
 10
30.6848
 20
442.26
 30
0.0
 11
30.69990000000001
 21
442.2919999999999
 31
0.0
  0
LINE
  5
1A0
330
70
100
AcDbEntity
  8
팀플 평면 최종 v6_0
100
AcDbLine
 10
42.6572
 20
442.2880000000001
 30
0.0
 11
42.6628
 21
442.263
 31
0.0
  0
LINE
  5
1A1
330
70
100
AcDbEntity
  8
팀플 평면 최종 v6_0
100
AcDbLine
 10
36.5002
 20
442.302
 30
0.0
 11
30.6999
 21
442.302
 31
0.0
  0
LINE
  5
1A2
330
70
100
AcDbEntity
  8
팀플 평면 최종 v6_0
100
AcDbLine
 10
48.4999
 20
445.198
 30
0.0
 11
48.4999
 21
442.302
 31
0.0
  0
LINE
  5
1A3
330
70
100
AcDbEntity
  8
팀플 평면 최종 v6_0
100
AcDbLine
 10
36.5813
 20
445.301
 30
0.0
 11
36.5291
 21
445.273
 31
0.0
  0
LINE
  5
1A4
330
70
100
AcDbEntity
  8
팀플 평면 최종 v6_0
100
AcDbLine
 10
42.69989999999999
 20
445.198
 30
0.0
 11
42.69989999999999
 21
445.22
 31
0.0
  0
LINE
  5
1A5
330
70
100
AcDbEntity
  8
팀플 평면 최종 v6_0
100
AcDbLine
 10
24.5291
 20
445.273
 30
0.0
 11
24.5001
 21
445.22
 31
0.0
  0
LINE
  5
1A6
330
70
100
AcDbEntity
  8
팀플 평면 최종 v6_0
100
AcDbLine
 10
13.0004
 20
422.3
 30
0.0
 11
13.0004
 21
422.289
 31
0.0
  0
LINE
  5
1A7
330
70
100
AcDbEntity
  8
팀플 평면 최종 v6_0
100
AcDbLine
 10
13.0101
 20
416.101
 30
0.0
 11
13.0418
 21
416.1159999999999
 31
0.0
  0
LINE
  5
1A8
330
70
100
AcDbEntity
  8
팀플 평면 최종 v6_0
100
AcDbLine
 10
30.61590000000001
 20
445.301
 30
0.0
 11
30.5993
 21
445.301
 31
0.0
  0
LINE
  5
1A9
330
70
100
AcDbEntity
  8
팀플 평면 최종 v6_0
100
AcDbLine
 10
24.5815
 20
445.301
 30
0.0
 11
24.5291
 21
445.273
 31
0.0
  0
LINE
  5
1AA
330
70
100
AcDbEntity
  8
팀플 평면 최종 v6_0
100
AcDbLine
 10
30.69990000000001
 20
442.2919999999999
 30
0.0
 11
30.69990000000001
 21
442.302
 31
0.0
  0
LINE
  5
1AB
330
70
100
AcDbEntity
  8
팀플 평면 최종 v6_0
100
AcDbLine
 10
13.0817
 20
442.302
 30
0.0
 11
13.0294
 21
442.27
 31
0.0
  0
LINE
  5
1AC
330
70
100
AcDbEntity
  8
팀플 평면 최종 v6_0
100
AcDbLine
 10
24.50010000000001
 20
442.302
 30
0.0
 11
24.50010000000001
 21
442.2919999999999
 31
0.0
  0
LINE
  5
1AD
330
70
100
AcDbEntity
  8
팀플 평면 최종 v6_0
100
AcDbLine
 10
24.50010000000001
 20
445.198
 30
0.0
 11
24.50010000000001
 21
442.302
 31
0.0
  0
LINE
  5
1AE
330
70
100
AcDbEntity
  8
팀플 평면 최종 v6_0
100
AcDbLine
 10
30.69990000000001
 20
445.198
 30
0.0
 11
30.69990000000001
 21
445.22
 31
0.0
  0
LINE
  5
1AF
330
70
100
AcDbEntity
  8
팀플 평면 최종 v6_0
100
AcDbLine
 10
42.6628
 20
442.263
 30
0.0
 11
42.68469999999999
 21
442.26
 31
0.0
  0
LINE
  5
1B0
330
70
100
AcDbEntity
  8
팀플 평면 최종 v6_0
100
AcDbLine
 10
24.5994
 20
445.301
 30
0.0
 11
24.5815
 21
445.301
 31
0.0
  0
LINE
  5
1B1
330
70
100
AcDbEntity
  8
팀플 평면 최종 v6_0
100
AcDbLine
 10
13.0004
 20
434.301
 30
0.0
 11
13.0004
 21
434.291
 31
0.0
  0
LINE
  5
1B2
330
70
100
AcDbEntity
  8
팀플 평면 최종 v6_0
100
AcDbLine
 10
13.0996
 20
442.302
 30
0.0
 11
13.0817
 21
442.302
 31
0.0
  0
LINE
  5
1B3
330
70
100
AcDbEntity
  8
팀플 평면 최종 v6_0
100
AcDbLine
 10
30.69990000000001
 20
445.22
 30
0.0
 11
30.6696
 21
445.273
 31
0.0
  0
LINE
  5
1B4
330
70
100
AcDbEntity
  8
팀플 평면 최종 v6_0
100
AcDbLine
 10
48.5415
 20
442.2880000000001
 30
0.0
 11
48.50979999999999
 21
442.302
 31
0.0
  0
LINE
  5
1B5
330
70
100
AcDbEntity
  8
팀플 평면 최종 v6_0
100
AcDbLine
 10
24.5098
 20
442.302
 30
0.0
 11
24.50010000000001
 21
442.302
 31
0.0
  0
LINE
  5
1B6
330
70
100
AcDbEntity
  8
팀플 평면 최종 v6_0
100
AcDbLine
 10
36.5993
 20
445.301
 30
0.0
 11
36.5813
 21
445.301
 31
0.0
  0
LINE
  5
1B7
330
70
100
AcDbEntity
  8
팀플 평면 최종 v6_0
100
AcDbLine
 10
36.5139
 20
442.26
 30
0.0
 11
36.5372
 21
442.263
 31
0.0
  0
LINE
  5
1B8
330
70
100
AcDbEntity
  8
팀플 평면 최종 v6_0
100
AcDbLine
 10
10.0294
 20
422.271
 30
0.0
 11
10.0004
 21
422.219
 31
0.0
  0
LINE
  5
1B9
330
70
100
AcDbEntity
  8
팀플 평면 최종 v6_0
100
AcDbLine
 10
30.69990000000001
 20
442.302
 30
0.0
 11
30.69990000000001
 21
445.198
 31
0.0
  0
LINE
  5
1BA
330
70
100
AcDbEntity
  8
팀플 평면 최종 v6_0
100
AcDbLine
 10
36.5097
 20
442.302
 30
0.0
 11
36.5002
 21
442.302
 31
0.0
  0
LINE
  5
1BB
330
70
100
AcDbEntity
  8
팀플 평면 최종 v6_0
100
AcDbLine
 10
13.0142
 20
410.2590000000001
 30
0.0
 11
13.0376
 21
410.263
 31
0.0
  0
LINE
  5
1BC
330
70
100
AcDbEntity
  8
팀플 평면 최종 v6_0
100
AcDbLine
 10
13.0142
 20
434.259
 30
0.0
 11
13.0376
 21
434.2619999999999
 31
0.0
  0
LINE
  5
1BD
330
70
100
AcDbEntity
  8
팀플 평면 최종 v6_0
100
AcDbLine
 10
36.5002
 20
445.22
 30
0.0
 11
36.5002
 21
445.1979999999999
 31
0.0
  0
LINE
  5
1BE
330
70
100
AcDbEntity
  8
팀플 평면 최종 v6_0
100
AcDbLine
 10
13.0101
 20
434.301
 30
0.0
 11
13.0004
 21
434.301
 31
0.0
  0
LINE
  5
1BF
330
70
100
AcDbEntity
  8
팀플 평면 최종 v6_0
100
AcDbLine
 10
10.0996
 20
422.3
 30
0.0
 11
10.0817
 21
422.3
 31
0.0
  0
LINE
  5
1C0
330
70
100
AcDbEntity
  8
팀플 평면 최종 v6_0
100
AcDbLine
 10
10.0294
 20
380.129
 30
0.0
 11
10.0817
 21
380.1
 31
0.0
  0
LINE
  5
1C1
330
70
100
AcDbEntity
  8
팀플 평면 최종 v6_0
100
AcDbLine
 10
10.0294
 20
434.269
 30
0.0
 11
10.0004
 21
434.22
 31
0.0
  0
LINE
  5
1C2
330
70
100
AcDbEntity
  8
팀플 평면 최종 v6_0
100
AcDbLine
 10
10.0294
 20
410.2699999999999
 30
0.0
 11
10.0004
 21
410.217
 31
0.0
  0
LINE
  5
1C3
330
70
100
AcDbEntity
  8
팀플 평면 최종 v6_0
100
AcDbLine
 10
13.0418
 20
428.113
 30
0.0
 11
13.0376
 21
428.1380000000001
 31
0.0
  0
LINE
  5
1C4
330
70
100
AcDbEntity
  8
팀플 평면 최종 v6_0
100
AcDbLine
 10
10.0817
 20
380.1
 30
0.0
 11
10.0996
 21
380.1
 31
0.0
  0
LINE
  5
1C5
330
70
100
AcDbEntity
  8
팀플 평면 최종 v6_0
100
AcDbLine
 10
13.0004
 20
422.289
 30
0.0
 11
13.0142
 21
422.2569999999999
 31
0.0
  0
LINE
  5
1C6
330
70
100
AcDbEntity
  8
팀플 평면 최종 v6_0
100
AcDbLine
 10
10.0004
 20
428.202
 30
0.0
 11
10.0004
 21
428.184
 31
0.0
  0
LINE
  5
1C7
330
70
100
AcDbEntity
  8
팀플 평면 최종 v6_0
100
AcDbLine
 10
13.0376
 20
422.261
 30
0.0
 11
13.0418
 21
422.2859999999999
 31
0.0
  0
LINE
  5
1C8
330
70
100
AcDbEntity
  8
팀플 평면 최종 v6_0
100
AcDbLine
 10
10.0996
 20
410.298
 30
0.0
 11
10.0817
 21
410.298
 31
0.0
  0
LINE
  5
1C9
330
70
100
AcDbEntity
  8
팀플 평면 최종 v6_0
100
AcDbLine
 10
13.0004
 20
422.3
 30
0.0
 11
10.0996
 21
422.3
 31
0.0
  0
LINE
  5
1CA
330
70
100
AcDbEntity
  8
팀플 평면 최종 v6_0
100
AcDbLine
 10
10.0817
 20
404.1
 30
0.0
 11
10.0996
 21
404.1
 31
0.0
  0
LINE
  5
1CB
330
70
100
AcDbEntity
  8
팀플 평면 최종 v6_0
100
AcDbLine
 10
13.0142
 20
416.1439999999999
 30
0.0
 11
13.0004
 21
416.1119999999999
 31
0.0
  0
LINE
  5
1CC
330
70
100
AcDbEntity
  8
팀플 평면 최종 v6_0
100
AcDbLine
 10
10.0004
 20
434.22
 30
0.0
 11
10.0004
 21
434.199
 31
0.0
  0
LINE
  5
1CD
330
70
100
AcDbEntity
  8
팀플 평면 최종 v6_0
100
AcDbLine
 10
13.0004
 20
416.101
 30
0.0
 11
13.0101
 21
416.101
 31
0.0
  0
LINE
  5
1CE
330
70
100
AcDbEntity
  8
팀플 평면 최종 v6_0
100
AcDbLine
 10
10.0004
 20
380.199
 30
0.0
 11
10.0004
 21
380.182
 31
0.0
  0
LINE
  5
1CF
330
70
100
AcDbEntity
  8
팀플 평면 최종 v6_0
100
AcDbLine
 10
13.0142
 20
422.2569999999999
 30
0.0
 11
13.0376
 21
422.261
 31
0.0
  0
LINE
  5
1D0
330
70
100
AcDbEntity
  8
팀플 평면 최종 v6_0
100
AcDbLine
 10
13.0142
 20
392.1440000000001
 30
0.0
 11
13.0004
 21
392.1130000000001
 31
0.0
  0
LINE
  5
1D1
330
70
100
AcDbEntity
  8
팀플 평면 최종 v6_0
100
AcDbLine
 10
10.0294
 20
428.1309999999999
 30
0.0
 11
10.0817
 21
428.099
 31
0.0
  0
LINE
  5
1D2
330
70
100
AcDbEntity
  8
팀플 평면 최종 v6_0
100
AcDbLine
 10
13.0004
 20
428.1100000000001
 30
0.0
 11
13.0004
 21
428.099
 31
0.0
  0
LINE
  5
1D3
330
70
100
AcDbEntity
  8
팀플 평면 최종 v6_0
100
AcDbLine
 10
10.0004
 20
422.219
 30
0.0
 11
10.0004
 21
422.201
 31
0.0
  0
LINE
  5
1D4
330
70
100
AcDbEntity
  8
팀플 평면 최종 v6_0
100
AcDbLine
 10
13.0101
 20
428.099
 30
0.0
 11
13.0418
 21
428.113
 31
0.0
  0
LINE
  5
1D5
330
70
100
AcDbEntity
  8
팀플 평면 최종 v6_0
100
AcDbLine
 10
10.0294
 20
416.1299999999999
 30
0.0
 11
10.0817
 21
416.101
 31
0.0
  0
LINE
  5
1D6
330
70
100
AcDbEntity
  8
팀플 평면 최종 v6_0
100
AcDbLine
 10
10.0996
 20
428.099
 30
0.0
 11
13.0004
 21
428.099
 31
0.0
  0
LINE
  5
1D7
330
70
100
AcDbEntity
  8
팀플 평면 최종 v6_0
100
AcDbLine
 10
13.0004
 20
428.099
 30
0.0
 11
13.0004
 21
422.3
 31
0.0
  0
LINE
  5
1D8
330
70
100
AcDbEntity
  8
팀플 평면 최종 v6_0
100
AcDbLine
 10
13.0418
 20
410.2879999999999
 30
0.0
 11
13.0101
 21
410.298
 31
0.0
  0
LINE
  5
1D9
330
70
100
AcDbEntity
  8
팀플 평면 최종 v6_0
100
AcDbLine
 10
13.0101
 20
410.298
 30
0.0
 11
13.0004
 21
410.298
 31
0.0
  0
LINE
  5
1DA
330
70
100
AcDbEntity
  8
팀플 평면 최종 v6_0
100
AcDbLine
 10
10.0004
 20
410.217
 30
0.0
 11
10.0004
 21
410.199
 31
0.0
  0
LINE
  5
1DB
330
70
100
AcDbEntity
  8
팀플 평면 최종 v6_0
100
AcDbLine
 10
10.0817
 20
416.101
 30
0.0
 11
10.0996
 21
416.101
 31
0.0
  0
LINE
  5
1DC
330
70
100
AcDbEntity
  8
팀플 평면 최종 v6_0
100
AcDbLine
 10
10.0004
 20
422.201
 30
0.0
 11
10.0004
 21
416.2
 31
0.0
  0
LINE
  5
1DD
330
70
100
AcDbEntity
  8
팀플 평면 최종 v6_0
100
AcDbLine
 10
13.0004
 20
404.1
 30
0.0
 11
13.0004
 21
398.3000000000001
 31
0.0
  0
LINE
  5
1DE
330
70
100
AcDbEntity
  8
팀플 평면 최종 v6_0
100
AcDbLine
 10
10.0817
 20
410.298
 30
0.0
 11
10.0294
 21
410.2699999999999
 31
0.0
  0
LINE
  5
1DF
330
70
100
AcDbEntity
  8
팀플 평면 최종 v6_0
100
AcDbLine
 10
10.0817
 20
434.301
 30
0.0
 11
10.0294
 21
434.2690000000001
 31
0.0
  0
LINE
  5
1E0
330
70
100
AcDbEntity
  8
팀플 평면 최종 v6_0
100
AcDbLine
 10
13.0376
 20
416.14
 30
0.0
 11
13.0142
 21
416.1439999999999
 31
0.0
  0
LINE
  5
1E1
330
70
100
AcDbEntity
  8
팀플 평면 최종 v6_0
100
AcDbLine
 10
10.0004
 20
404.2019999999999
 30
0.0
 11
10.0004
 21
404.185
 31
0.0
  0
LINE
  5
1E2
330
70
100
AcDbEntity
  8
팀플 평면 최종 v6_0
100
AcDbLine
 10
13.0418
 20
434.2869999999999
 30
0.0
 11
13.0101
 21
434.301
 31
0.0
  0
LINE
  5
1E3
330
70
100
AcDbEntity
  8
팀플 평면 최종 v6_0
100
AcDbLine
 10
10.0004
 20
428.184
 30
0.0
 11
10.0294
 21
428.1309999999999
 31
0.0
  0
LINE
  5
1E4
330
70
100
AcDbEntity
  8
팀플 평면 최종 v6_0
100
AcDbLine
 10
13.0004
 20
416.1119999999999
 30
0.0
 11
13.0004
 21
416.101
 31
0.0
  0
LINE
  5
1E5
330
70
100
AcDbEntity
  8
팀플 평면 최종 v6_0
100
AcDbLine
 10
13.0376
 20
398.261
 30
0.0
 11
13.0418
 21
398.286
 31
0.0
  0
LINE
  5
1E6
330
70
100
AcDbEntity
  8
팀플 평면 최종 v6_0
100
AcDbLine
 10
10.0004
 20
410.199
 30
0.0
 11
10.0004
 21
404.2019999999999
 31
0.0
  0
LINE
  5
1E7
330
70
100
AcDbEntity
  8
팀플 평면 최종 v6_0
100
AcDbLine
 10
13.0101
 20
380.1
 30
0.0
 11
13.0418
 21
380.115
 31
0.0
  0
LINE
  5
1E8
330
70
100
AcDbEntity
  8
팀플 평면 최종 v6_0
100
AcDbLine
 10
10.0004
 20
434.199
 30
0.0
 11
10.0004
 21
428.202
 31
0.0
  0
LINE
  5
1E9
330
70
100
AcDbEntity
  8
팀플 평면 최종 v6_0
100
AcDbLine
 10
13.0376
 20
410.263
 30
0.0
 11
13.0418
 21
410.2879999999999
 31
0.0
  0
LINE
  5
1EA
330
70
100
AcDbEntity
  8
팀플 평면 최종 v6_0
100
AcDbLine
 10
13.0004
 20
434.301
 30
0.0
 11
10.0996
 21
434.301
 31
0.0
  0
LINE
  5
1EB
330
70
100
AcDbEntity
  8
팀플 평면 최종 v6_0
100
AcDbLine
 10
13.0101
 20
422.3
 30
0.0
 11
13.0004
 21
422.3
 31
0.0
  0
LINE
  5
1EC
330
70
100
AcDbEntity
  8
팀플 평면 최종 v6_0
100
AcDbLine
 10
13.0418
 20
416.116
 30
0.0
 11
13.0376
 21
416.14
 31
0.0
  0
LINE
  5
1ED
330
70
100
AcDbEntity
  8
팀플 평면 최종 v6_0
100
AcDbLine
 10
10.0996
 20
404.1
 30
0.0
 11
13.0004
 21
404.1
 31
0.0
  0
LINE
  5
1EE
330
70
100
AcDbEntity
  8
팀플 평면 최종 v6_0
100
AcDbLine
 10
10.0817
 20
428.099
 30
0.0
 11
10.0996
 21
428.099
 31
0.0
  0
LINE
  5
1EF
330
70
100
AcDbEntity
  8
팀플 평면 최종 v6_0
100
AcDbLine
 10
10.0004
 20
404.185
 30
0.0
 11
10.0294
 21
404.1319999999999
 31
0.0
  0
LINE
  5
1F0
330
70
100
AcDbEntity
  8
팀플 평면 최종 v6_0
100
AcDbLine
 10
10.0004
 20
392.183
 30
0.0
 11
10.0294
 21
392.13
 31
0.0
  0
LINE
  5
1F1
330
70
100
AcDbEntity
  8
팀플 평면 최종 v6_0
100
AcDbLine
 10
13.0004
 20
428.099
 30
0.0
 11
13.0101
 21
428.099
 31
0.0
  0
LINE
  5
1F2
330
70
100
AcDbEntity
  8
팀플 평면 최종 v6_0
100
AcDbLine
 10
13.0004
 20
380.1
 30
0.0
 11
13.0101
 21
380.1
 31
0.0
  0
LINE
  5
1F3
330
70
100
AcDbEntity
  8
팀플 평면 최종 v6_0
100
AcDbLine
 10
10.0004
 20
416.183
 30
0.0
 11
10.0294
 21
416.1299999999999
 31
0.0
  0
LINE
  5
1F4
330
70
100
AcDbEntity
  8
팀플 평면 최종 v6_0
100
AcDbLine
 10
10.0996
 20
416.101
 30
0.0
 11
13.0004
 21
416.101
 31
0.0
  0
LINE
  5
1F5
330
70
100
AcDbEntity
  8
팀플 평면 최종 v6_0
100
AcDbLine
 10
13.0376
 20
428.1380000000001
 30
0.0
 11
13.0142
 21
428.1419999999999
 31
0.0
  0
LINE
  5
1F6
330
70
100
AcDbEntity
  8
팀플 평면 최종 v6_0
100
AcDbLine
 10
13.0101
 20
404.1
 30
0.0
 11
13.0418
 21
404.114
 31
0.0
  0
LINE
  5
1F7
330
70
100
AcDbEntity
  8
팀플 평면 최종 v6_0
100
AcDbLine
 10
13.0004
 20
404.1
 30
0.0
 11
13.0101
 21
404.1
 31
0.0
  0
LINE
  5
1F8
330
70
100
AcDbEntity
  8
팀플 평면 최종 v6_0
100
AcDbLine
 10
10.0996
 20
374.301
 30
0.0
 11
10.0817
 21
374.301
 31
0.0
  0
LINE
  5
1F9
330
70
100
AcDbEntity
  8
팀플 평면 최종 v6_0
100
AcDbLine
 10
13.0142
 20
386.26
 30
0.0
 11
13.0376
 21
386.2630000000001
 31
0.0
  0
LINE
  5
1FA
330
70
100
AcDbEntity
  8
팀플 평면 최종 v6_0
100
AcDbLine
 10
10.0004
 20
386.2
 30
0.0
 11
10.0004
 21
380.199
 31
0.0
  0
LINE
  5
1FB
330
70
100
AcDbEntity
  8
팀플 평면 최종 v6_0
100
AcDbLine
 10
10.0004
 20
380.182
 30
0.0
 11
10.0294
 21
380.129
 31
0.0
  0
LINE
  5
1FC
330
70
100
AcDbEntity
  8
팀플 평면 최종 v6_0
100
AcDbLine
 10
13.0004
 20
398.3000000000001
 30
0.0
 11
10.0996
 21
398.3000000000001
 31
0.0
  0
LINE
  5
1FD
330
70
100
AcDbEntity
  8
팀플 평면 최종 v6_0
100
AcDbLine
 10
13.0101
 20
368.099
 30
0.0
 11
13.0418
 21
368.117
 31
0.0
  0
LINE
  5
1FE
330
70
100
AcDbEntity
  8
팀플 평면 최종 v6_0
100
AcDbLine
 10
13.0101
 20
398.3000000000001
 30
0.0
 11
13.0004
 21
398.3000000000001
 31
0.0
  0
LINE
  5
1FF
330
70
100
AcDbEntity
  8
팀플 평면 최종 v6_0
100
AcDbLine
 10
13.0101
 20
392.098
 30
0.0
 11
13.0418
 21
392.116
 31
0.0
  0
LINE
  5
200
330
70
100
AcDbEntity
  8
팀플 평면 최종 v6_0
100
AcDbLine
 10
13.0418
 20
380.1150000000001
 30
0.0
 11
13.0376
 21
380.136
 31
0.0
  0
LINE
  5
201
330
70
100
AcDbEntity
  8
팀플 평면 최종 v6_0
100
AcDbLine
 10
13.0004
 20
398.2900000000001
 30
0.0
 11
13.0142
 21
398.2580000000001
 31
0.0
  0
LINE
  5
202
330
70
100
AcDbEntity
  8
팀플 평면 최종 v6_0
100
AcDbLine
 10
10.0004
 20
374.2160000000001
 30
0.0
 11
10.0004
 21
374.198
 31
0.0
  0
LINE
  5
203
330
70
100
AcDbEntity
  8
팀플 평면 최종 v6_0
100
AcDbLine
 10
10.0004
 20
362.2
 30
0.0
 11
10.0004
 21
356.2
 31
0.0
  0
LINE
  5
204
330
70
100
AcDbEntity
  8
팀플 평면 최종 v6_0
100
AcDbLine
 10
13.0376
 20
392.1369999999999
 30
0.0
 11
13.0142
 21
392.144
 31
0.0
  0
LINE
  5
205
330
70
100
AcDbEntity
  8
팀플 평면 최종 v6_0
100
AcDbLine
 10
13.0376
 20
380.136
 30
0.0
 11
13.0142
 21
380.143
 31
0.0
  0
LINE
  5
206
330
70
100
AcDbEntity
  8
팀플 평면 최종 v6_0
100
AcDbLine
 10
10.0004
 20
344.2000000000001
 30
0.0
 11
10.0004
 21
344.1830000000001
 31
0.0
  0
LINE
  5
207
330
70
100
AcDbEntity
  8
팀플 평면 최종 v6_0
100
AcDbLine
 10
13.0004
 20
386.2990000000001
 30
0.0
 11
10.0996
 21
386.2990000000001
 31
0.0
  0
LINE
  5
208
330
70
100
AcDbEntity
  8
팀플 평면 최종 v6_0
100
AcDbLine
 10
10.0996
 20
362.2990000000001
 30
0.0
 11
10.0817
 21
362.2990000000001
 31
0.0
  0
LINE
  5
209
330
70
100
AcDbEntity
  8
팀플 평면 최종 v6_0
100
AcDbLine
 10
10.0294
 20
392.13
 30
0.0
 11
10.0817
 21
392.098
 31
0.0
  0
LINE
  5
20A
330
70
100
AcDbEntity
  8
팀플 평면 최종 v6_0
100
AcDbLine
 10
10.0294
 20
386.2700000000001
 30
0.0
 11
10.0004
 21
386.2180000000001
 31
0.0
  0
LINE
  5
20B
330
70
100
AcDbEntity
  8
팀플 평면 최종 v6_0
100
AcDbLine
 10
13.0376
 20
368.1380000000001
 30
0.0
 11
13.0142
 21
368.141
 31
0.0
  0
LINE
  5
20C
330
70
100
AcDbEntity
  8
팀플 평면 최종 v6_0
100
AcDbLine
 10
13.0004
 20
356.101
 30
0.0
 11
13.0101
 21
356.101
 31
0.0
  0
LINE
  5
20D
330
70
100
AcDbEntity
  8
팀플 평면 최종 v6_0
100
AcDbLine
 10
13.0142
 20
398.2580000000001
 30
0.0
 11
13.0376
 21
398.261
 31
0.0
  0
LINE
  5
20E
330
70
100
AcDbEntity
  8
팀플 평면 최종 v6_0
100
AcDbLine
 10
13.0418
 20
392.116
 30
0.0
 11
13.0376
 21
392.1369999999999
 31
0.0
  0
LINE
  5
20F
330
70
100
AcDbEntity
  8
팀플 평면 최종 v6_0
100
AcDbLine
 10
10.0004
 20
350.199
 30
0.0
 11
10.0004
 21
344.2000000000001
 31
0.0
  0
LINE
  5
210
330
70
100
AcDbEntity
  8
팀플 평면 최종 v6_0
100
AcDbLine
 10
13.0004
 20
404.11
 30
0.0
 11
13.0004
 21
404.1
 31
0.0
  0
LINE
  5
211
330
70
100
AcDbEntity
  8
팀플 평면 최종 v6_0
100
AcDbLine
 10
13.0004
 20
392.1130000000001
 30
0.0
 11
13.0004
 21
392.098
 31
0.0
  0
LINE
  5
212
330
70
100
AcDbEntity
  8
팀플 평면 최종 v6_0
100
AcDbLine
 10
10.0004
 20
398.219
 30
0.0
 11
10.0004
 21
398.201
 31
0.0
  0
LINE
  5
213
330
70
100
AcDbEntity
  8
팀플 평면 최종 v6_0
100
AcDbLine
 10
13.0004
 20
386.292
 30
0.0
 11
13.0142
 21
386.26
 31
0.0
  0
LINE
  5
214
330
70
100
AcDbEntity
  8
팀플 평면 최종 v6_0
100
AcDbLine
 10
13.0376
 20
386.2630000000001
 30
0.0
 11
13.0418
 21
386.285
 31
0.0
  0
LINE
  5
215
330
70
100
AcDbEntity
  8
팀플 평면 최종 v6_0
100
AcDbLine
 10
10.0996
 20
380.1
 30
0.0
 11
13.0004
 21
380.1
 31
0.0
  0
LINE
  5
216
330
70
100
AcDbEntity
  8
팀플 평면 최종 v6_0
100
AcDbLine
 10
10.0996
 20
392.098
 30
0.0
 11
13.0004
 21
392.098
 31
0.0
  0
LINE
  5
217
330
70
100
AcDbEntity
  8
팀플 평면 최종 v6_0
100
AcDbLine
 10
10.0294
 20
374.273
 30
0.0
 11
10.0004
 21
374.2160000000001
 31
0.0
  0
LINE
  5
218
330
70
100
AcDbEntity
  8
팀플 평면 최종 v6_0
100
AcDbLine
 10
10.0996
 20
398.3000000000001
 30
0.0
 11
10.0817
 21
398.3000000000001
 31
0.0
  0
LINE
  5
219
330
70
100
AcDbEntity
  8
팀플 평면 최종 v6_0
100
AcDbLine
 10
10.0004
 20
392.201
 30
0.0
 11
10.0004
 21
392.183
 31
0.0
  0
LINE
  5
21A
330
70
100
AcDbEntity
  8
팀플 평면 최종 v6_0
100
AcDbLine
 10
10.0817
 20
392.098
 30
0.0
 11
10.0996
 21
392.098
 31
0.0
  0
LINE
  5
21B
330
70
100
AcDbEntity
  8
팀플 평면 최종 v6_0
100
AcDbLine
 10
10.0996
 20
386.2990000000001
 30
0.0
 11
10.0817
 21
386.2990000000001
 31
0.0
  0
LINE
  5
21C
330
70
100
AcDbEntity
  8
팀플 평면 최종 v6_0
100
AcDbLine
 10
13.0142
 20
374.258
 30
0.0
 11
13.0376
 21
374.262
 31
0.0
  0
LINE
  5
21D
330
70
100
AcDbEntity
  8
팀플 평면 최종 v6_0
100
AcDbLine
 10
10.0004
 20
386.2180000000001
 30
0.0
 11
10.0004
 21
386.2
 31
0.0
  0
LINE
  5
21E
330
70
100
AcDbEntity
  8
팀플 평면 최종 v6_0
100
AcDbLine
 10
10.0294
 20
398.272
 30
0.0
 11
10.0004
 21
398.219
 31
0.0
  0
LINE
  5
21F
330
70
100
AcDbEntity
  8
팀플 평면 최종 v6_0
100
AcDbLine
 10
13.0004
 20
386.2990000000001
 30
0.0
 11
13.0004
 21
386.292
 31
0.0
  0
LINE
  5
220
330
70
100
AcDbEntity
  8
팀플 평면 최종 v6_0
100
AcDbLine
 10
13.0004
 20
392.098
 30
0.0
 11
13.0101
 21
392.098
 31
0.0
  0
LINE
  5
221
330
70
100
AcDbEntity
  8
팀플 평면 최종 v6_0
100
AcDbLine
 10
13.0004
 20
368.099
 30
0.0
 11
13.0101
 21
368.099
 31
0.0
  0
LINE
  5
222
330
70
100
AcDbEntity
  8
팀플 평면 최종 v6_0
100
AcDbLine
 10
13.0004
 20
362.2990000000001
 30
0.0
 11
10.0996
 21
362.2990000000001
 31
0.0
  0
LINE
  5
223
330
70
100
AcDbEntity
  8
팀플 평면 최종 v6_0
100
AcDbLine
 10
10.0004
 20
374.198
 30
0.0
 11
10.0004
 21
368.201
 31
0.0
  0
LINE
  5
224
330
70
100
AcDbEntity
  8
팀플 평면 최종 v6_0
100
AcDbLine
 10
13.0376
 20
404.139
 30
0.0
 11
13.0142
 21
404.142
 31
0.0
  0
LINE
  5
225
330
70
100
AcDbEntity
  8
팀플 평면 최종 v6_0
100
AcDbLine
 10
13.0004
 20
392.098
 30
0.0
 11
13.0004
 21
386.2990000000001
 31
0.0
  0
LINE
  5
226
330
70
100
AcDbEntity
  8
팀플 평면 최종 v6_0
100
AcDbLine
 10
13.0376
 20
374.262
 30
0.0
 11
13.0418
 21
374.287
 31
0.0
  0
LINE
  5
227
330
70
100
AcDbEntity
  8
팀플 평면 최종 v6_0
100
AcDbLine
 10
13.0004
 20
374.29
 30
0.0
 11
13.0142
 21
374.258
 31
0.0
  0
LINE
  5
228
330
70
100
AcDbEntity
  8
팀플 평면 최종 v6_0
100
AcDbLine
 10
10.0294
 20
362.271
 30
0.0
 11
10.0004
 21
362.218
 31
0.0
  0
LINE
  5
229
330
70
100
AcDbEntity
  8
팀플 평면 최종 v6_0
100
AcDbLine
 10
10.0004
 20
398.201
 30
0.0
 11
10.0004
 21
392.201
 31
0.0
  0
LINE
  5
22A
330
70
100
AcDbEntity
  8
팀플 평면 최종 v6_0
100
AcDbLine
 10
13.0418
 20
374.287
 30
0.0
 11
13.0101
 21
374.301
 31
0.0
  0
LINE
  5
22B
330
70
100
AcDbEntity
  8
팀플 평면 최종 v6_0
100
AcDbLine
 10
13.0004
 20
398.3000000000001
 30
0.0
 11
13.0004
 21
398.2900000000001
 31
0.0
  0
LINE
  5
22C
330
70
100
AcDbEntity
  8
팀플 평면 최종 v6_0
100
AcDbLine
 10
13.0004
 20
338.2910000000001
 30
0.0
 11
13.0142
 21
338.2590000000001
 31
0.0
  0
LINE
  5
22D
330
70
100
AcDbEntity
  8
팀플 평면 최종 v6_0
100
AcDbLine
 10
10.0817
 20
398.3000000000001
 30
0.0
 11
10.0294
 21
398.272
 31
0.0
  0
LINE
  5
22E
330
70
100
AcDbEntity
  8
팀플 평면 최종 v6_0
100
AcDbLine
 10
10.0817
 20
368.099
 30
0.0
 11
10.0996
 21
368.099
 31
0.0
  0
LINE
  5
22F
330
70
100
AcDbEntity
  8
팀플 평면 최종 v6_0
100
AcDbLine
 10
13.0004
 20
326.3
 30
0.0
 11
10.0996
 21
326.3
 31
0.0
  0
LINE
  5
230
330
70
100
AcDbEntity
  8
팀플 평면 최종 v6_0
100
AcDbLine
 10
13.0142
 20
344.143
 30
0.0
 11
13.0004
 21
344.111
 31
0.0
  0
LINE
  5
231
330
70
100
AcDbEntity
  8
팀플 평면 최종 v6_0
100
AcDbLine
 10
13.0004
 20
356.101
 30
0.0
 11
13.0004
 21
350.3
 31
0.0
  0
LINE
  5
232
330
70
100
AcDbEntity
  8
팀플 평면 최종 v6_0
100
AcDbLine
 10
13.0142
 20
356.1430000000001
 30
0.0
 11
13.0004
 21
356.112
 31
0.0
  0
LINE
  5
233
330
70
100
AcDbEntity
  8
팀플 평면 최종 v6_0
100
AcDbLine
 10
13.0004
 20
362.289
 30
0.0
 11
13.0142
 21
362.26
 31
0.0
  0
LINE
  5
234
330
70
100
AcDbEntity
  8
팀플 평면 최종 v6_0
100
AcDbLine
 10
13.0101
 20
344.1
 30
0.0
 11
13.0418
 21
344.115
 31
0.0
  0
LINE
  5
235
330
70
100
AcDbEntity
  8
팀플 평면 최종 v6_0
100
AcDbLine
 10
13.0142
 20
380.143
 30
0.0
 11
13.0004
 21
380.111
 31
0.0
  0
LINE
  5
236
330
70
100
AcDbEntity
  8
팀플 평면 최종 v6_0
100
AcDbLine
 10
13.0418
 20
320.1150000000001
 30
0.0
 11
13.0376
 21
320.138
 31
0.0
  0
LINE
  5
237
330
70
100
AcDbEntity
  8
팀플 평면 최종 v6_0
100
AcDbLine
 10
13.0004
 20
362.2990000000001
 30
0.0
 11
13.0004
 21
362.289
 31
0.0
  0
LINE
  5
238
330
70
100
AcDbEntity
  8
팀플 평면 최종 v6_0
100
AcDbLine
 10
13.0101
 20
356.101
 30
0.0
 11
13.0418
 21
356.115
 31
0.0
  0
LINE
  5
239
330
70
100
AcDbEntity
  8
팀플 평면 최종 v6_0
100
AcDbLine
 10
10.0817
 20
344.1
 30
0.0
 11
10.0996
 21
344.1
 31
0.0
  0
LINE
  5
23A
330
70
100
AcDbEntity
  8
팀플 평면 최종 v6_0
100
AcDbLine
 10
10.0817
 20
350.3
 30
0.0
 11
10.0294
 21
350.2709999999999
 31
0.0
  0
LINE
  5
23B
330
70
100
AcDbEntity
  8
팀플 평면 최종 v6_0
100
AcDbLine
 10
10.0294
 20
368.131
 30
0.0
 11
10.0817
 21
368.099
 31
0.0
  0
LINE
  5
23C
330
70
100
AcDbEntity
  8
팀플 평면 최종 v6_0
100
AcDbLine
 10
13.0101
 20
374.301
 30
0.0
 11
13.0004
 21
374.301
 31
0.0
  0
LINE
  5
23D
330
70
100
AcDbEntity
  8
팀플 평면 최종 v6_0
100
AcDbLine
 10
13.0004
 20
380.111
 30
0.0
 11
13.0004
 21
380.1
 31
0.0
  0
LINE
  5
23E
330
70
100
AcDbEntity
  8
팀플 평면 최종 v6_0
100
AcDbLine
 10
13.0418
 20
362.285
 30
0.0
 11
13.0101
 21
362.2990000000001
 31
0.0
  0
LINE
  5
23F
330
70
100
AcDbEntity
  8
팀플 평면 최종 v6_0
100
AcDbLine
 10
13.0004
 20
332.1
 30
0.0
 11
13.0101
 21
332.1
 31
0.0
  0
LINE
  5
240
330
70
100
AcDbEntity
  8
팀플 평면 최종 v6_0
100
AcDbLine
 10
10.0996
 20
338.3000000000001
 30
0.0
 11
10.0817
 21
338.3000000000001
 31
0.0
  0
LINE
  5
241
330
70
100
AcDbEntity
  8
팀플 평면 최종 v6_0
100
AcDbLine
 10
13.0376
 20
350.263
 30
0.0
 11
13.0418
 21
350.286
 31
0.0
  0
LINE
  5
242
330
70
100
AcDbEntity
  8
팀플 평면 최종 v6_0
100
AcDbLine
 10
13.0004
 20
380.1
 30
0.0
 11
13.0004
 21
374.301
 31
0.0
  0
LINE
  5
243
330
70
100
AcDbEntity
  8
팀플 평면 최종 v6_0
100
AcDbLine
 10
13.0101
 20
386.2990000000001
 30
0.0
 11
13.0004
 21
386.2990000000001
 31
0.0
  0
LINE
  5
244
330
70
100
AcDbEntity
  8
팀플 평면 최종 v6_0
100
AcDbLine
 10
13.0142
 20
314.259
 30
0.0
 11
13.0376
 21
314.263
 31
0.0
  0
LINE
  5
245
330
70
100
AcDbEntity
  8
팀플 평면 최종 v6_0
100
AcDbLine
 10
10.0996
 20
332.1
 30
0.0
 11
13.0004
 21
332.1
 31
0.0
  0
LINE
  5
246
330
70
100
AcDbEntity
  8
팀플 평면 최종 v6_0
100
AcDbLine
 10
13.0004
 20
374.301
 30
0.0
 11
10.0996
 21
374.301
 31
0.0
  0
LINE
  5
247
330
70
100
AcDbEntity
  8
팀플 평면 최종 v6_0
100
AcDbLine
 10
10.0004
 20
362.218
 30
0.0
 11
10.0004
 21
362.2
 31
0.0
  0
LINE
  5
248
330
70
100
AcDbEntity
  8
팀플 평면 최종 v6_0
100
AcDbLine
 10
13.0101
 20
350.3
 30
0.0
 11
13.0004
 21
350.3
 31
0.0
  0
LINE
  5
249
330
70
100
AcDbEntity
  8
팀플 평면 최종 v6_0
100
AcDbLine
 10
13.0004
 20
350.3
 30
0.0
 11
10.0996
 21
350.3
 31
0.0
  0
LINE
  5
24A
330
70
100
AcDbEntity
  8
팀플 평면 최종 v6_0
100
AcDbLine
 10
13.0142
 20
404.142
 30
0.0
 11
13.0004
 21
404.11
 31
0.0
  0
LINE
  5
24B
330
70
100
AcDbEntity
  8
팀플 평면 최종 v6_0
100
AcDbLine
 10
13.0004
 20
374.301
 30
0.0
 11
13.0004
 21
374.29
 31
0.0
  0
LINE
  5
24C
330
70
100
AcDbEntity
  8
팀플 평면 최종 v6_0
100
AcDbLine
 10
10.0004
 20
368.201
 30
0.0
 11
10.0004
 21
368.184
 31
0.0
  0
LINE
  5
24D
330
70
100
AcDbEntity
  8
팀플 평면 최종 v6_0
100
AcDbLine
 10
13.0142
 20
338.259
 30
0.0
 11
13.0376
 21
338.263
 31
0.0
  0
LINE
  5
24E
330
70
100
AcDbEntity
  8
팀플 평면 최종 v6_0
100
AcDbLine
 10
13.0418
 20
350.286
 30
0.0
 11
13.0101
 21
350.3
 31
0.0
  0
LINE
  5
24F
330
70
100
AcDbEntity
  8
팀플 평면 최종 v6_0
100
AcDbLine
 10
10.0817
 20
362.2990000000001
 30
0.0
 11
10.0294
 21
362.271
 31
0.0
  0
LINE
  5
250
330
70
100
AcDbEntity
  8
팀플 평면 최종 v6_0
100
AcDbLine
 10
13.0376
 20
356.136
 30
0.0
 11
13.0142
 21
356.143
 31
0.0
  0
LINE
  5
251
330
70
100
AcDbEntity
  8
팀플 평면 최종 v6_0
100
AcDbLine
 10
13.0376
 20
314.263
 30
0.0
 11
13.0418
 21
314.287
 31
0.0
  0
LINE
  5
252
330
70
100
AcDbEntity
  8
팀플 평면 최종 v6_0
100
AcDbLine
 10
10.0817
 20
386.2990000000001
 30
0.0
 11
10.0294
 21
386.2700000000001
 31
0.0
  0
LINE
  5
253
330
70
100
AcDbEntity
  8
팀플 평면 최종 v6_0
100
AcDbLine
 10
13.0004
 20
332.111
 30
0.0
 11
13.0004
 21
332.1
 31
0.0
  0
LINE
  5
254
330
70
100
AcDbEntity
  8
팀플 평면 최종 v6_0
100
AcDbLine
 10
13.0004
 20
314.3
 30
0.0
 11
10.0996
 21
314.3
 31
0.0
  0
LINE
  5
255
330
70
100
AcDbEntity
  8
팀플 평면 최종 v6_0
100
AcDbLine
 10
10.0817
 20
374.301
 30
0.0
 11
10.0294
 21
374.273
 31
0.0
  0
LINE
  5
256
330
70
100
AcDbEntity
  8
팀플 평면 최종 v6_0
100
AcDbLine
 10
10.0996
 20
356.101
 30
0.0
 11
13.0004
 21
356.101
 31
0.0
  0
LINE
  5
257
330
70
100
AcDbEntity
  8
팀플 평면 최종 v6_0
100
AcDbLine
 10
13.0101
 20
314.3
 30
0.0
 11
13.0004
 21
314.3
 31
0.0
  0
LINE
  5
258
330
70
100
AcDbEntity
  8
팀플 평면 최종 v6_0
100
AcDbLine
 10
13.0101
 20
338.3000000000001
 30
0.0
 11
13.0004
 21
338.3000000000001
 31
0.0
  0
LINE
  5
259
330
70
100
AcDbEntity
  8
팀플 평면 최종 v6_0
100
AcDbLine
 10
13.0142
 20
362.26
 30
0.0
 11
13.0376
 21
362.264
 31
0.0
  0
LINE
  5
25A
330
70
100
AcDbEntity
  8
팀플 평면 최종 v6_0
100
AcDbLine
 10
13.0004
 20
368.099
 30
0.0
 11
13.0004
 21
362.2990000000001
 31
0.0
  0
LINE
  5
25B
330
70
100
AcDbEntity
  8
팀플 평면 최종 v6_0
100
AcDbLine
 10
13.0418
 20
386.285
 30
0.0
 11
13.0101
 21
386.2990000000001
 31
0.0
  0
LINE
  5
25C
330
70
100
AcDbEntity
  8
팀플 평면 최종 v6_0
100
AcDbLine
 10
13.0418
 20
368.117
 30
0.0
 11
13.0376
 21
368.1380000000001
 31
0.0
  0
LINE
  5
25D
330
70
100
AcDbEntity
  8
팀플 평면 최종 v6_0
100
AcDbLine
 10
10.0294
 20
356.129
 30
0.0
 11
10.0817
 21
356.101
 31
0.0
  0
LINE
  5
25E
330
70
100
AcDbEntity
  8
팀플 평면 최종 v6_0
100
AcDbLine
 10
10.0996
 20
368.099
 30
0.0
 11
13.0004
 21
368.099
 31
0.0
  0
LINE
  5
25F
330
70
100
AcDbEntity
  8
팀플 평면 최종 v6_0
100
AcDbLine
 10
13.0101
 20
332.1
 30
0.0
 11
13.0418
 21
332.116
 31
0.0
  0
LINE
  5
260
330
70
100
AcDbEntity
  8
팀플 평면 최종 v6_0
100
AcDbLine
 10
13.0376
 20
362.264
 30
0.0
 11
13.0418
 21
362.2850000000001
 31
0.0
  0
LINE
  5
261
330
70
100
AcDbEntity
  8
팀플 평면 최종 v6_0
100
AcDbLine
 10
10.0294
 20
350.2709999999999
 30
0.0
 11
10.0004
 21
350.217
 31
0.0
  0
LINE
  5
262
330
70
100
AcDbEntity
  8
팀플 평면 최종 v6_0
100
AcDbLine
 10
13.0418
 20
356.115
 30
0.0
 11
13.0376
 21
356.136
 31
0.0
  0
LINE
  5
263
330
70
100
AcDbEntity
  8
팀플 평면 최종 v6_0
100
AcDbLine
 10
13.0004
 20
344.1
 30
0.0
 11
13.0101
 21
344.1
 31
0.0
  0
LINE
  5
264
330
70
100
AcDbEntity
  8
팀플 평면 최종 v6_0
100
AcDbLine
 10
13.0004
 20
344.1
 30
0.0
 11
13.0004
 21
338.3000000000001
 31
0.0
  0
LINE
  5
265
330
70
100
AcDbEntity
  8
팀플 평면 최종 v6_0
100
AcDbLine
 10
10.0004
 20
320.1830000000001
 30
0.0
 11
10.0294
 21
320.129
 31
0.0
  0
LINE
  5
266
330
70
100
AcDbEntity
  8
팀플 평면 최종 v6_0
100
AcDbLine
 10
10.0294
 20
320.129
 30
0.0
 11
10.0817
 21
320.1
 31
0.0
  0
LINE
  5
267
330
70
100
AcDbEntity
  8
팀플 평면 최종 v6_0
100
AcDbLine
 10
13.0004
 20
302.291
 30
0.0
 11
13.0142
 21
302.2590000000001
 31
0.0
  0
LINE
  5
268
330
70
100
AcDbEntity
  8
팀플 평면 최종 v6_0
100
AcDbLine
 10
13.0376
 20
344.138
 30
0.0
 11
13.0142
 21
344.143
 31
0.0
  0
LINE
  5
269
330
70
100
AcDbEntity
  8
팀플 평면 최종 v6_0
100
AcDbLine
 10
10.0004
 20
350.217
 30
0.0
 11
10.0004
 21
350.199
 31
0.0
  0
LINE
  5
26A
330
70
100
AcDbEntity
  8
팀플 평면 최종 v6_0
100
AcDbLine
 10
13.0101
 20
302.3000000000001
 30
0.0
 11
13.0004
 21
302.3000000000001
 31
0.0
  0
LINE
  5
26B
330
70
100
AcDbEntity
  8
팀플 평면 최종 v6_0
100
AcDbLine
 10
13.0004
 20
338.3000000000001
 30
0.0
 11
10.0996
 21
338.3000000000001
 31
0.0
  0
LINE
  5
26C
330
70
100
AcDbEntity
  8
팀플 평면 최종 v6_0
100
AcDbLine
 10
13.0142
 20
320.143
 30
0.0
 11
13.0004
 21
320.111
 31
0.0
  0
LINE
  5
26D
330
70
100
AcDbEntity
  8
팀플 평면 최종 v6_0
100
AcDbLine
 10
13.0418
 20
326.286
 30
0.0
 11
13.0101
 21
326.3000000000001
 31
0.0
  0
LINE
  5
26E
330
70
100
AcDbEntity
  8
팀플 평면 최종 v6_0
100
AcDbLine
 10
13.0004
 20
368.1090000000001
 30
0.0
 11
13.0004
 21
368.099
 31
0.0
  0
LINE
  5
26F
330
70
100
AcDbEntity
  8
팀플 평면 최종 v6_0
100
AcDbLine
 10
10.0004
 20
368.184
 30
0.0
 11
10.0294
 21
368.131
 31
0.0
  0
LINE
  5
270
330
70
100
AcDbEntity
  8
팀플 평면 최종 v6_0
100
AcDbLine
 10
13.0142
 20
350.259
 30
0.0
 11
13.0376
 21
350.2630000000001
 31
0.0
  0
LINE
  5
271
330
70
100
AcDbEntity
  8
팀플 평면 최종 v6_0
100
AcDbLine
 10
13.0004
 20
350.3
 30
0.0
 11
13.0004
 21
350.29
 31
0.0
  0
LINE
  5
272
330
70
100
AcDbEntity
  8
팀플 평면 최종 v6_0
100
AcDbLine
 10
10.0996
 20
344.1
 30
0.0
 11
13.0004
 21
344.1
 31
0.0
  0
LINE
  5
273
330
70
100
AcDbEntity
  8
팀플 평면 최종 v6_0
100
AcDbLine
 10
13.0004
 20
320.111
 30
0.0
 11
13.0004
 21
320.1
 31
0.0
  0
LINE
  5
274
330
70
100
AcDbEntity
  8
팀플 평면 최종 v6_0
100
AcDbLine
 10
10.0996
 20
302.3000000000001
 30
0.0
 11
10.0817
 21
302.3000000000001
 31
0.0
  0
LINE
  5
275
330
70
100
AcDbEntity
  8
팀플 평면 최종 v6_0
100
AcDbLine
 10
10.0817
 20
326.3
 30
0.0
 11
10.0294
 21
326.271
 31
0.0
  0
LINE
  5
276
330
70
100
AcDbEntity
  8
팀플 평면 최종 v6_0
100
AcDbLine
 10
13.0004
 20
326.3
 30
0.0
 11
13.0004
 21
326.291
 31
0.0
  0
LINE
  5
277
330
70
100
AcDbEntity
  8
팀플 평면 최종 v6_0
100
AcDbLine
 10
10.0294
 20
290.2709999999999
 30
0.0
 11
10.0004
 21
290.218
 31
0.0
  0
LINE
  5
278
330
70
100
AcDbEntity
  8
팀플 평면 최종 v6_0
100
AcDbLine
 10
13.0004
 20
284.111
 30
0.0
 11
13.0004
 21
284.1
 31
0.0
  0
LINE
  5
279
330
70
100
AcDbEntity
  8
팀플 평면 최종 v6_0
100
AcDbLine
 10
13.0142
 20
284.143
 30
0.0
 11
13.0004
 21
284.111
 31
0.0
  0
LINE
  5
27A
330
70
100
AcDbEntity
  8
팀플 평면 최종 v6_0
100
AcDbLine
 10
13.0004
 20
350.29
 30
0.0
 11
13.0142
 21
350.259
 31
0.0
  0
LINE
  5
27B
330
70
100
AcDbEntity
  8
팀플 평면 최종 v6_0
100
AcDbLine
 10
13.0376
 20
326.2630000000001
 30
0.0
 11
13.0418
 21
326.286
 31
0.0
  0
LINE
  5
27C
330
70
100
AcDbEntity
  8
팀플 평면 최종 v6_0
100
AcDbLine
 10
13.0376
 20
338.263
 30
0.0
 11
13.0418
 21
338.286
 31
0.0
  0
LINE
  5
27D
330
70
100
AcDbEntity
  8
팀플 평면 최종 v6_0
100
AcDbLine
 10
13.0376
 20
308.138
 30
0.0
 11
13.0142
 21
308.1430000000001
 31
0.0
  0
LINE
  5
27E
330
70
100
AcDbEntity
  8
팀플 평면 최종 v6_0
100
AcDbLine
 10
13.0101
 20
320.1
 30
0.0
 11
13.0418
 21
320.115
 31
0.0
  0
LINE
  5
27F
330
70
100
AcDbEntity
  8
팀플 평면 최종 v6_0
100
AcDbLine
 10
13.0004
 20
314.3
 30
0.0
 11
13.0004
 21
314.29
 31
0.0
  0
LINE
  5
280
330
70
100
AcDbEntity
  8
팀플 평면 최종 v6_0
100
AcDbLine
 10
10.0294
 20
326.271
 30
0.0
 11
10.0004
 21
326.2169999999999
 31
0.0
  0
LINE
  5
281
330
70
100
AcDbEntity
  8
팀플 평면 최종 v6_0
100
AcDbLine
 10
13.0004
 20
356.112
 30
0.0
 11
13.0004
 21
356.101
 31
0.0
  0
LINE
  5
282
330
70
100
AcDbEntity
  8
팀플 평면 최종 v6_0
100
AcDbLine
 10
13.0004
 20
314.29
 30
0.0
 11
13.0142
 21
314.259
 31
0.0
  0
LINE
  5
283
330
70
100
AcDbEntity
  8
팀플 평면 최종 v6_0
100
AcDbLine
 10
13.0004
 20
308.1
 30
0.0
 11
13.0101
 21
308.1
 31
0.0
  0
LINE
  5
284
330
70
100
AcDbEntity
  8
팀플 평면 최종 v6_0
100
AcDbLine
 10
10.0294
 20
338.2709999999999
 30
0.0
 11
10.0004
 21
338.2180000000001
 31
0.0
  0
LINE
  5
285
330
70
100
AcDbEntity
  8
팀플 평면 최종 v6_0
100
AcDbLine
 10
13.0376
 20
332.1369999999999
 30
0.0
 11
13.0142
 21
332.143
 31
0.0
  0
LINE
  5
286
330
70
100
AcDbEntity
  8
팀플 평면 최종 v6_0
100
AcDbLine
 10
13.0004
 20
290.3
 30
0.0
 11
10.0996
 21
290.3
 31
0.0
  0
LINE
  5
287
330
70
100
AcDbEntity
  8
팀플 평면 최종 v6_0
100
AcDbLine
 10
13.0101
 20
308.1
 30
0.0
 11
13.0418
 21
308.115
 31
0.0
  0
LINE
  5
288
330
70
100
AcDbEntity
  8
팀플 평면 최종 v6_0
100
AcDbLine
 10
13.0142
 20
368.141
 30
0.0
 11
13.0004
 21
368.1090000000001
 31
0.0
  0
LINE
  5
289
330
70
100
AcDbEntity
  8
팀플 평면 최종 v6_0
100
AcDbLine
 10
13.0376
 20
302.263
 30
0.0
 11
13.0418
 21
302.286
 31
0.0
  0
LINE
  5
28A
330
70
100
AcDbEntity
  8
팀플 평면 최종 v6_0
100
AcDbLine
 10
13.0101
 20
326.3
 30
0.0
 11
13.0004
 21
326.3
 31
0.0
  0
LINE
  5
28B
330
70
100
AcDbEntity
  8
팀플 평면 최종 v6_0
100
AcDbLine
 10
10.0817
 20
308.1
 30
0.0
 11
10.0996
 21
308.1
 31
0.0
  0
LINE
  5
28C
330
70
100
AcDbEntity
  8
팀플 평면 최종 v6_0
100
AcDbLine
 10
10.0996
 20
350.3
 30
0.0
 11
10.0817
 21
350.3
 31
0.0
  0
LINE
  5
28D
330
70
100
AcDbEntity
  8
팀플 평면 최종 v6_0
100
AcDbLine
 10
13.0004
 20
320.1
 30
0.0
 11
13.0101
 21
320.1
 31
0.0
  0
LINE
  5
28E
330
70
100
AcDbEntity
  8
팀플 평면 최종 v6_0
100
AcDbLine
 10
10.0004
 20
356.1819999999999
 30
0.0
 11
10.0294
 21
356.129
 31
0.0
  0
LINE
  5
28F
330
70
100
AcDbEntity
  8
팀플 평면 최종 v6_0
100
AcDbLine
 10
10.0294
 20
332.129
 30
0.0
 11
10.0817
 21
332.1
 31
0.0
  0
LINE
  5
290
330
70
100
AcDbEntity
  8
팀플 평면 최종 v6_0
100
AcDbLine
 10
13.0004
 20
344.111
 30
0.0
 11
13.0004
 21
344.1
 31
0.0
  0
LINE
  5
291
330
70
100
AcDbEntity
  8
팀플 평면 최종 v6_0
100
AcDbLine
 10
13.0142
 20
308.143
 30
0.0
 11
13.0004
 21
308.112
 31
0.0
  0
LINE
  5
292
330
70
100
AcDbEntity
  8
팀플 평면 최종 v6_0
100
AcDbLine
 10
10.0817
 20
338.3000000000001
 30
0.0
 11
10.0294
 21
338.2709999999999
 31
0.0
  0
LINE
  5
293
330
70
100
AcDbEntity
  8
팀플 평면 최종 v6_0
100
AcDbLine
 10
13.0101
 20
362.2990000000001
 30
0.0
 11
13.0004
 21
362.2990000000001
 31
0.0
  0
LINE
  5
294
330
70
100
AcDbEntity
  8
팀플 평면 최종 v6_0
100
AcDbLine
 10
13.0418
 20
314.287
 30
0.0
 11
13.0101
 21
314.3
 31
0.0
  0
LINE
  5
295
330
70
100
AcDbEntity
  8
팀플 평면 최종 v6_0
100
AcDbLine
 10
10.0004
 20
356.2
 30
0.0
 11
10.0004
 21
356.1819999999999
 31
0.0
  0
LINE
  5
296
330
70
100
AcDbEntity
  8
팀플 평면 최종 v6_0
100
AcDbLine
 10
13.0004
 20
302.3000000000001
 30
0.0
 11
10.0996
 21
302.3000000000001
 31
0.0
  0
LINE
  5
297
330
70
100
AcDbEntity
  8
팀플 평면 최종 v6_0
100
AcDbLine
 10
13.0004
 20
332.1
 30
0.0
 11
13.0004
 21
326.3000000000001
 31
0.0
  0
LINE
  5
298
330
70
100
AcDbEntity
  8
팀플 평면 최종 v6_0
100
AcDbLine
 10
10.0004
 20
338.218
 30
0.0
 11
10.0004
 21
338.2
 31
0.0
  0
LINE
  5
299
330
70
100
AcDbEntity
  8
팀플 평면 최종 v6_0
100
AcDbLine
 10
13.0418
 20
332.116
 30
0.0
 11
13.0376
 21
332.1369999999999
 31
0.0
  0
LINE
  5
29A
330
70
100
AcDbEntity
  8
팀플 평면 최종 v6_0
100
AcDbLine
 10
10.0817
 20
356.101
 30
0.0
 11
10.0996
 21
356.101
 31
0.0
  0
LINE
  5
29B
330
70
100
AcDbEntity
  8
팀플 평면 최종 v6_0
100
AcDbLine
 10
10.0004
 20
314.217
 30
0.0
 11
10.0004
 21
314.2
 31
0.0
  0
LINE
  5
29C
330
70
100
AcDbEntity
  8
팀플 평면 최종 v6_0
100
AcDbLine
 10
10.0004
 20
290.218
 30
0.0
 11
10.0004
 21
290.2
 31
0.0
  0
LINE
  5
29D
330
70
100
AcDbEntity
  8
팀플 평면 최종 v6_0
100
AcDbLine
 10
10.0004
 20
308.183
 30
0.0
 11
10.0294
 21
308.13
 31
0.0
  0
LINE
  5
29E
330
70
100
AcDbEntity
  8
팀플 평면 최종 v6_0
100
AcDbLine
 10
13.0004
 20
254.301
 30
0.0
 11
13.0004
 21
254.291
 31
0.0
  0
LINE
  5
29F
330
70
100
AcDbEntity
  8
팀플 평면 최종 v6_0
100
AcDbLine
 10
13.0418
 20
296.116
 30
0.0
 11
13.0376
 21
296.138
 31
0.0
  0
LINE
  5
2A0
330
70
100
AcDbEntity
  8
팀플 평면 최종 v6_0
100
AcDbLine
 10
13.0004
 20
308.112
 30
0.0
 11
13.0004
 21
308.1
 31
0.0
  0
LINE
  5
2A1
330
70
100
AcDbEntity
  8
팀플 평면 최종 v6_0
100
AcDbLine
 10
13.0004
 20
296.101
 30
0.0
 11
13.0004
 21
290.3
 31
0.0
  0
LINE
  5
2A2
330
70
100
AcDbEntity
  8
팀플 평면 최종 v6_0
100
AcDbLine
 10
10.0004
 20
290.2
 30
0.0
 11
10.0004
 21
284.2
 31
0.0
  0
LINE
  5
2A3
330
70
100
AcDbEntity
  8
팀플 평면 최종 v6_0
100
AcDbLine
 10
10.0004
 20
332.1830000000001
 30
0.0
 11
10.0294
 21
332.129
 31
0.0
  0
LINE
  5
2A4
330
70
100
AcDbEntity
  8
팀플 평면 최종 v6_0
100
AcDbLine
 10
13.0004
 20
338.3000000000001
 30
0.0
 11
13.0004
 21
338.2910000000001
 31
0.0
  0
LINE
  5
2A5
330
70
100
AcDbEntity
  8
팀플 평면 최종 v6_0
100
AcDbLine
 10
10.0294
 20
296.129
 30
0.0
 11
10.0817
 21
296.101
 31
0.0
  0
LINE
  5
2A6
330
70
100
AcDbEntity
  8
팀플 평면 최종 v6_0
100
AcDbLine
 10
13.0142
 20
266.259
 30
0.0
 11
13.0376
 21
266.263
 31
0.0
  0
LINE
  5
2A7
330
70
100
AcDbEntity
  8
팀플 평면 최종 v6_0
100
AcDbLine
 10
10.0817
 20
290.3
 30
0.0
 11
10.0294
 21
290.2709999999999
 31
0.0
  0
LINE
  5
2A8
330
70
100
AcDbEntity
  8
팀플 평면 최종 v6_0
100
AcDbLine
 10
13.0142
 20
296.143
 30
0.0
 11
13.0004
 21
296.1110000000001
 31
0.0
  0
LINE
  5
2A9
330
70
100
AcDbEntity
  8
팀플 평면 최종 v6_0
100
AcDbLine
 10
13.0101
 20
284.1
 30
0.0
 11
13.0418
 21
284.116
 31
0.0
  0
LINE
  5
2AA
330
70
100
AcDbEntity
  8
팀플 평면 최종 v6_0
100
AcDbLine
 10
10.0817
 20
284.1
 30
0.0
 11
10.0996
 21
284.1
 31
0.0
  0
LINE
  5
2AB
330
70
100
AcDbEntity
  8
팀플 평면 최종 v6_0
100
AcDbLine
 10
10.0004
 20
326.199
 30
0.0
 11
10.0004
 21
320.199
 31
0.0
  0
LINE
  5
2AC
330
70
100
AcDbEntity
  8
팀플 평면 최종 v6_0
100
AcDbLine
 10
10.0004
 20
302.218
 30
0.0
 11
10.0004
 21
302.2
 31
0.0
  0
LINE
  5
2AD
330
70
100
AcDbEntity
  8
팀플 평면 최종 v6_0
100
AcDbLine
 10
13.0376
 20
320.138
 30
0.0
 11
13.0142
 21
320.143
 31
0.0
  0
LINE
  5
2AE
330
70
100
AcDbEntity
  8
팀플 평면 최종 v6_0
100
AcDbLine
 10
13.0142
 20
326.259
 30
0.0
 11
13.0376
 21
326.2630000000001
 31
0.0
  0
LINE
  5
2AF
330
70
100
AcDbEntity
  8
팀플 평면 최종 v6_0
100
AcDbLine
 10
10.0996
 20
296.101
 30
0.0
 11
13.0004
 21
296.101
 31
0.0
  0
LINE
  5
2B0
330
70
100
AcDbEntity
  8
팀플 평면 최종 v6_0
100
AcDbLine
 10
10.0996
 20
326.3
 30
0.0
 11
10.0817
 21
326.3
 31
0.0
  0
LINE
  5
2B1
330
70
100
AcDbEntity
  8
팀플 평면 최종 v6_0
100
AcDbLine
 10
13.0101
 20
278.3
 30
0.0
 11
13.0004
 21
278.3
 31
0.0
  0
LINE
  5
2B2
330
70
100
AcDbEntity
  8
팀플 평면 최종 v6_0
100
AcDbLine
 10
13.0418
 20
338.286
 30
0.0
 11
13.0101
 21
338.3000000000001
 31
0.0
  0
LINE
  5
2B3
330
70
100
AcDbEntity
  8
팀플 평면 최종 v6_0
100
AcDbLine
 10
10.0294
 20
302.271
 30
0.0
 11
10.0004
 21
302.218
 31
0.0
  0
LINE
  5
2B4
330
70
100
AcDbEntity
  8
팀플 평면 최종 v6_0
100
AcDbLine
 10
13.0376
 20
290.263
 30
0.0
 11
13.0418
 21
290.286
 31
0.0
  0
LINE
  5
2B5
330
70
100
AcDbEntity
  8
팀플 평면 최종 v6_0
100
AcDbLine
 10
10.0817
 20
314.3
 30
0.0
 11
10.0294
 21
314.271
 31
0.0
  0
LINE
  5
2B6
330
70
100
AcDbEntity
  8
팀플 평면 최종 v6_0
100
AcDbLine
 10
13.0004
 20
320.1
 30
0.0
 11
13.0004
 21
314.3
 31
0.0
  0
LINE
  5
2B7
330
70
100
AcDbEntity
  8
팀플 평면 최종 v6_0
100
AcDbLine
 10
13.0004
 20
296.101
 30
0.0
 11
13.0101
 21
296.101
 31
0.0
  0
LINE
  5
2B8
330
70
100
AcDbEntity
  8
팀플 평면 최종 v6_0
100
AcDbLine
 10
13.0101
 20
296.101
 30
0.0
 11
13.0418
 21
296.116
 31
0.0
  0
LINE
  5
2B9
330
70
100
AcDbEntity
  8
팀플 평면 최종 v6_0
100
AcDbLine
 10
10.0817
 20
332.1
 30
0.0
 11
10.0996
 21
332.1
 31
0.0
  0
LINE
  5
2BA
330
70
100
AcDbEntity
  8
팀플 평면 최종 v6_0
100
AcDbLine
 10
10.0817
 20
320.1
 30
0.0
 11
10.0996
 21
320.1
 31
0.0
  0
LINE
  5
2BB
330
70
100
AcDbEntity
  8
팀플 평면 최종 v6_0
100
AcDbLine
 10
13.0418
 20
344.115
 30
0.0
 11
13.0376
 21
344.138
 31
0.0
  0
LINE
  5
2BC
330
70
100
AcDbEntity
  8
팀플 평면 최종 v6_0
100
AcDbLine
 10
10.0996
 20
284.1
 30
0.0
 11
13.0004
 21
284.1
 31
0.0
  0
LINE
  5
2BD
330
70
100
AcDbEntity
  8
팀플 평면 최종 v6_0
100
AcDbLine
 10
13.0004
 20
326.291
 30
0.0
 11
13.0142
 21
326.259
 31
0.0
  0
LINE
  5
2BE
330
70
100
AcDbEntity
  8
팀플 평면 최종 v6_0
100
AcDbLine
 10
13.0004
 20
254.291
 30
0.0
 11
13.0142
 21
254.259
 31
0.0
  0
LINE
  5
2BF
330
70
100
AcDbEntity
  8
팀플 평면 최종 v6_0
100
AcDbLine
 10
10.0004
 20
338.2
 30
0.0
 11
10.0004
 21
332.2
 31
0.0
  0
LINE
  5
2C0
330
70
100
AcDbEntity
  8
팀플 평면 최종 v6_0
100
AcDbLine
 10
10.0004
 20
326.217
 30
0.0
 11
10.0004
 21
326.199
 31
0.0
  0
LINE
  5
2C1
330
70
100
AcDbEntity
  8
팀플 평면 최종 v6_0
100
AcDbLine
 10
10.0294
 20
254.272
 30
0.0
 11
10.0004
 21
254.218
 31
0.0
  0
LINE
  5
2C2
330
70
100
AcDbEntity
  8
팀플 평면 최종 v6_0
100
AcDbLine
 10
10.0294
 20
314.271
 30
0.0
 11
10.0004
 21
314.217
 31
0.0
  0
LINE
  5
2C3
330
70
100
AcDbEntity
  8
팀플 평면 최종 v6_0
100
AcDbLine
 10
13.0004
 20
260.11
 30
0.0
 11
13.0004
 21
260.099
 31
0.0
  0
LINE
  5
2C4
330
70
100
AcDbEntity
  8
팀플 평면 최종 v6_0
100
AcDbLine
 10
13.0004
 20
302.3000000000001
 30
0.0
 11
13.0004
 21
302.291
 31
0.0
  0
LINE
  5
2C5
330
70
100
AcDbEntity
  8
팀플 평면 최종 v6_0
100
AcDbLine
 10
13.0004
 20
296.111
 30
0.0
 11
13.0004
 21
296.101
 31
0.0
  0
LINE
  5
2C6
330
70
100
AcDbEntity
  8
팀플 평면 최종 v6_0
100
AcDbLine
 10
10.0996
 20
320.1
 30
0.0
 11
13.0004
 21
320.1
 31
0.0
  0
LINE
  5
2C7
330
70
100
AcDbEntity
  8
팀플 평면 최종 v6_0
100
AcDbLine
 10
13.0418
 20
290.286
 30
0.0
 11
13.0101
 21
290.3
 31
0.0
  0
LINE
  5
2C8
330
70
100
AcDbEntity
  8
팀플 평면 최종 v6_0
100
AcDbLine
 10
10.0004
 20
320.199
 30
0.0
 11
10.0004
 21
320.1830000000001
 31
0.0
  0
LINE
  5
2C9
330
70
100
AcDbEntity
  8
팀플 평면 최종 v6_0
100
AcDbLine
 10
13.0142
 20
332.143
 30
0.0
 11
13.0004
 21
332.111
 31
0.0
  0
LINE
  5
2CA
330
70
100
AcDbEntity
  8
팀플 평면 최종 v6_0
100
AcDbLine
 10
10.0004
 20
332.2
 30
0.0
 11
10.0004
 21
332.1830000000001
 31
0.0
  0
LINE
  5
2CB
330
70
100
AcDbEntity
  8
팀플 평면 최종 v6_0
100
AcDbLine
 10
10.0294
 20
284.129
 30
0.0
 11
10.0817
 21
284.1
 31
0.0
  0
LINE
  5
2CC
330
70
100
AcDbEntity
  8
팀플 평면 최종 v6_0
100
AcDbLine
 10
10.0817
 20
278.3
 30
0.0
 11
10.0294
 21
278.271
 31
0.0
  0
LINE
  5
2CD
330
70
100
AcDbEntity
  8
팀플 평면 최종 v6_0
100
AcDbLine
 10
13.0376
 20
278.263
 30
0.0
 11
13.0418
 21
278.287
 31
0.0
  0
LINE
  5
2CE
330
70
100
AcDbEntity
  8
팀플 평면 최종 v6_0
100
AcDbLine
 10
13.0376
 20
296.138
 30
0.0
 11
13.0142
 21
296.143
 31
0.0
  0
LINE
  5
2CF
330
70
100
AcDbEntity
  8
팀플 평면 최종 v6_0
100
AcDbLine
 10
10.0004
 20
272.2
 30
0.0
 11
10.0004
 21
272.183
 31
0.0
  0
LINE
  5
2D0
330
70
100
AcDbEntity
  8
팀플 평면 최종 v6_0
100
AcDbLine
 10
10.0004
 20
248.183
 30
0.0
 11
10.0294
 21
248.129
 31
0.0
  0
LINE
  5
2D1
330
70
100
AcDbEntity
  8
팀플 평면 최종 v6_0
100
AcDbLine
 10
10.0004
 20
308.2
 30
0.0
 11
10.0004
 21
308.183
 31
0.0
  0
LINE
  5
2D2
330
70
100
AcDbEntity
  8
팀플 평면 최종 v6_0
100
AcDbLine
 10
13.0418
 20
302.286
 30
0.0
 11
13.0101
 21
302.3000000000001
 31
0.0
  0
LINE
  5
2D3
330
70
100
AcDbEntity
  8
팀플 평면 최종 v6_0
100
AcDbLine
 10
10.0004
 20
284.2
 30
0.0
 11
10.0004
 21
284.1830000000001
 31
0.0
  0
LINE
  5
2D4
330
70
100
AcDbEntity
  8
팀플 평면 최종 v6_0
100
AcDbLine
 10
10.0004
 20
248.2
 30
0.0
 11
10.0004
 21
248.183
 31
0.0
  0
LINE
  5
2D5
330
70
100
AcDbEntity
  8
팀플 평면 최종 v6_0
100
AcDbLine
 10
10.0817
 20
296.101
 30
0.0
 11
10.0996
 21
296.101
 31
0.0
  0
LINE
  5
2D6
330
70
100
AcDbEntity
  8
팀플 평면 최종 v6_0
100
AcDbLine
 10
10.0294
 20
248.129
 30
0.0
 11
10.0817
 21
248.1
 31
0.0
  0
LINE
  5
2D7
330
70
100
AcDbEntity
  8
팀플 평면 최종 v6_0
100
AcDbLine
 10
13.0418
 20
284.116
 30
0.0
 11
13.0376
 21
284.138
 31
0.0
  0
LINE
  5
2D8
330
70
100
AcDbEntity
  8
팀플 평면 최종 v6_0
100
AcDbLine
 10
13.0418
 20
278.287
 30
0.0
 11
13.0101
 21
278.3
 31
0.0
  0
LINE
  5
2D9
330
70
100
AcDbEntity
  8
팀플 평면 최종 v6_0
100
AcDbLine
 10
13.0376
 20
254.263
 30
0.0
 11
13.0418
 21
254.287
 31
0.0
  0
LINE
  5
2DA
330
70
100
AcDbEntity
  8
팀플 평면 최종 v6_0
100
AcDbLine
 10
10.0817
 20
260.099
 30
0.0
 11
10.0996
 21
260.099
 31
0.0
  0
LINE
  5
2DB
330
70
100
AcDbEntity
  8
팀플 평면 최종 v6_0
100
AcDbLine
 10
13.0004
 20
278.291
 30
0.0
 11
13.0142
 21
278.259
 31
0.0
  0
LINE
  5
2DC
330
70
100
AcDbEntity
  8
팀플 평면 최종 v6_0
100
AcDbLine
 10
10.0294
 20
308.13
 30
0.0
 11
10.0817
 21
308.1
 31
0.0
  0
LINE
  5
2DD
330
70
100
AcDbEntity
  8
팀플 평면 최종 v6_0
100
AcDbLine
 10
13.0101
 20
260.099
 30
0.0
 11
13.0418
 21
260.1140000000001
 31
0.0
  0
LINE
  5
2DE
330
70
100
AcDbEntity
  8
팀플 평면 최종 v6_0
100
AcDbLine
 10
13.0004
 20
254.301
 30
0.0
 11
10.0996
 21
254.301
 31
0.0
  0
LINE
  5
2DF
330
70
100
AcDbEntity
  8
팀플 평면 최종 v6_0
100
AcDbLine
 10
13.0004
 20
272.1120000000001
 30
0.0
 11
13.0004
 21
272.1010000000001
 31
0.0
  0
LINE
  5
2E0
330
70
100
AcDbEntity
  8
팀플 평면 최종 v6_0
100
AcDbLine
 10
13.0376
 20
284.138
 30
0.0
 11
13.0142
 21
284.143
 31
0.0
  0
LINE
  5
2E1
330
70
100
AcDbEntity
  8
팀플 평면 최종 v6_0
100
AcDbLine
 10
10.0996
 20
278.3
 30
0.0
 11
10.0817
 21
278.3
 31
0.0
  0
LINE
  5
2E2
330
70
100
AcDbEntity
  8
팀플 평면 최종 v6_0
100
AcDbLine
 10
10.0004
 20
296.2
 30
0.0
 11
10.0004
 21
296.183
 31
0.0
  0
LINE
  5
2E3
330
70
100
AcDbEntity
  8
팀플 평면 최종 v6_0
100
AcDbLine
 10
13.0418
 20
260.114
 30
0.0
 11
13.0376
 21
260.138
 31
0.0
  0
LINE
  5
2E4
330
70
100
AcDbEntity
  8
팀플 평면 최종 v6_0
100
AcDbLine
 10
13.0004
 20
266.3
 30
0.0
 11
13.0004
 21
266.291
 31
0.0
  0
LINE
  5
2E5
330
70
100
AcDbEntity
  8
팀플 평면 최종 v6_0
100
AcDbLine
 10
13.0418
 20
308.115
 30
0.0
 11
13.0376
 21
308.138
 31
0.0
  0
LINE
  5
2E6
330
70
100
AcDbEntity
  8
팀플 평면 최종 v6_0
100
AcDbLine
 10
13.0004
 20
272.101
 30
0.0
 11
13.0004
 21
266.3
 31
0.0
  0
LINE
  5
2E7
330
70
100
AcDbEntity
  8
팀플 평면 최종 v6_0
100
AcDbLine
 10
13.0004
 20
260.099
 30
0.0
 11
13.0004
 21
254.301
 31
0.0
  0
LINE
  5
2E8
330
70
100
AcDbEntity
  8
팀플 평면 최종 v6_0
100
AcDbLine
 10
13.0142
 20
302.259
 30
0.0
 11
13.0376
 21
302.263
 31
0.0
  0
LINE
  5
2E9
330
70
100
AcDbEntity
  8
팀플 평면 최종 v6_0
100
AcDbLine
 10
10.0004
 20
266.218
 30
0.0
 11
10.0004
 21
266.2
 31
0.0
  0
LINE
  5
2EA
330
70
100
AcDbEntity
  8
팀플 평면 최종 v6_0
100
AcDbLine
 10
10.0294
 20
272.13
 30
0.0
 11
10.0817
 21
272.101
 31
0.0
  0
LINE
  5
2EB
330
70
100
AcDbEntity
  8
팀플 평면 최종 v6_0
100
AcDbLine
 10
10.0004
 20
296.183
 30
0.0
 11
10.0294
 21
296.129
 31
0.0
  0
LINE
  5
2EC
330
70
100
AcDbEntity
  8
팀플 평면 최종 v6_0
100
AcDbLine
 10
10.0817
 20
272.101
 30
0.0
 11
10.0996
 21
272.101
 31
0.0
  0
LINE
  5
2ED
330
70
100
AcDbEntity
  8
팀플 평면 최종 v6_0
100
AcDbLine
 10
10.0004
 20
254.218
 30
0.0
 11
10.0004
 21
254.2
 31
0.0
  0
LINE
  5
2EE
330
70
100
AcDbEntity
  8
팀플 평면 최종 v6_0
100
AcDbLine
 10
13.0004
 20
290.291
 30
0.0
 11
13.0142
 21
290.259
 31
0.0
  0
LINE
  5
2EF
330
70
100
AcDbEntity
  8
팀플 평면 최종 v6_0
100
AcDbLine
 10
13.0101
 20
290.3
 30
0.0
 11
13.0004
 21
290.3
 31
0.0
  0
LINE
  5
2F0
330
70
100
AcDbEntity
  8
팀플 평면 최종 v6_0
100
AcDbLine
 10
10.0996
 20
290.3
 30
0.0
 11
10.0817
 21
290.3
 31
0.0
  0
LINE
  5
2F1
330
70
100
AcDbEntity
  8
팀플 평면 최종 v6_0
100
AcDbLine
 10
13.0004
 20
290.3
 30
0.0
 11
13.0004
 21
290.291
 31
0.0
  0
LINE
  5
2F2
330
70
100
AcDbEntity
  8
팀플 평면 최종 v6_0
100
AcDbLine
 10
10.0996
 20
308.1
 30
0.0
 11
13.0004
 21
308.1
 31
0.0
  0
LINE
  5
2F3
330
70
100
AcDbEntity
  8
팀플 평면 최종 v6_0
100
AcDbLine
 10
10.0004
 20
314.2
 30
0.0
 11
10.0004
 21
308.2000000000001
 31
0.0
  0
LINE
  5
2F4
330
70
100
AcDbEntity
  8
팀플 평면 최종 v6_0
100
AcDbLine
 10
13.0418
 20
272.116
 30
0.0
 11
13.0376
 21
272.138
 31
0.0
  0
LINE
  5
2F5
330
70
100
AcDbEntity
  8
팀플 평면 최종 v6_0
100
AcDbLine
 10
13.0004
 20
308.1
 30
0.0
 11
13.0004
 21
302.3000000000001
 31
0.0
  0
LINE
  5
2F6
330
70
100
AcDbEntity
  8
팀플 평면 최종 v6_0
100
AcDbLine
 10
10.0004
 20
284.183
 30
0.0
 11
10.0294
 21
284.129
 31
0.0
  0
LINE
  5
2F7
330
70
100
AcDbEntity
  8
팀플 평면 최종 v6_0
100
AcDbLine
 10
10.0817
 20
302.3000000000001
 30
0.0
 11
10.0294
 21
302.271
 31
0.0
  0
LINE
  5
2F8
330
70
100
AcDbEntity
  8
팀플 평면 최종 v6_0
100
AcDbLine
 10
13.0142
 20
290.259
 30
0.0
 11
13.0376
 21
290.263
 31
0.0
  0
LINE
  5
2F9
330
70
100
AcDbEntity
  8
팀플 평면 최종 v6_0
100
AcDbLine
 10
13.0004
 20
284.1
 30
0.0
 11
13.0004
 21
278.3
 31
0.0
  0
LINE
  5
2FA
330
70
100
AcDbEntity
  8
팀플 평면 최종 v6_0
100
AcDbLine
 10
13.0004
 20
284.1
 30
0.0
 11
13.0101
 21
284.1
 31
0.0
  0
LINE
  5
2FB
330
70
100
AcDbEntity
  8
팀플 평면 최종 v6_0
100
AcDbLine
 10
13.0376
 20
260.138
 30
0.0
 11
13.0142
 21
260.142
 31
0.0
  0
LINE
  5
2FC
330
70
100
AcDbEntity
  8
팀플 평면 최종 v6_0
100
AcDbLine
 10
10.0004
 20
260.183
 30
0.0
 11
10.0294
 21
260.13
 31
0.0
  0
LINE
  5
2FD
330
70
100
AcDbEntity
  8
팀플 평면 최종 v6_0
100
AcDbLine
 10
10.0004
 20
278.2
 30
0.0
 11
10.0004
 21
272.2
 31
0.0
  0
LINE
  5
2FE
330
70
100
AcDbEntity
  8
팀플 평면 최종 v6_0
100
AcDbLine
 10
13.0004
 20
266.291
 30
0.0
 11
13.0142
 21
266.259
 31
0.0
  0
LINE
  5
2FF
330
70
100
AcDbEntity
  8
팀플 평면 최종 v6_0
100
AcDbLine
 10
13.0004
 20
278.3
 30
0.0
 11
10.0996
 21
278.3
 31
0.0
  0
LINE
  5
300
330
70
100
AcDbEntity
  8
팀플 평면 최종 v6_0
100
AcDbLine
 10
13.0418
 20
266.287
 30
0.0
 11
13.0101
 21
266.3
 31
0.0
  0
LINE
  5
301
330
70
100
AcDbEntity
  8
팀플 평면 최종 v6_0
100
AcDbLine
 10
10.0004
 20
302.2
 30
0.0
 11
10.0004
 21
296.2
 31
0.0
  0
LINE
  5
302
330
70
100
AcDbEntity
  8
팀플 평면 최종 v6_0
100
AcDbLine
 10
13.0418
 20
254.287
 30
0.0
 11
13.0101
 21
254.301
 31
0.0
  0
LINE
  5
303
330
70
100
AcDbEntity
  8
팀플 평면 최종 v6_0
100
AcDbLine
 10
10.0294
 20
278.271
 30
0.0
 11
10.0004
 21
278.217
 31
0.0
  0
LINE
  5
304
330
70
100
AcDbEntity
  8
팀플 평면 최종 v6_0
100
AcDbLine
 10
13.0004
 20
278.3
 30
0.0
 11
13.0004
 21
278.291
 31
0.0
  0
LINE
  5
305
330
70
100
AcDbEntity
  8
팀플 평면 최종 v6_0
100
AcDbLine
 10
13.0142
 20
254.259
 30
0.0
 11
13.0376
 21
254.263
 31
0.0
  0
LINE
  5
306
330
70
100
AcDbEntity
  8
팀플 평면 최종 v6_0
100
AcDbLine
 10
10.0004
 20
266.2
 30
0.0
 11
10.0004
 21
260.2
 31
0.0
  0
LINE
  5
307
330
70
100
AcDbEntity
  8
팀플 평면 최종 v6_0
100
AcDbLine
 10
13.0294
 20
228.13
 30
0.0
 11
13.0817
 21
228.1
 31
0.0
  0
LINE
  5
308
330
70
100
AcDbEntity
  8
팀플 평면 최종 v6_0
100
AcDbLine
 10
13.0004
 20
272.101
 30
0.0
 11
13.0101
 21
272.101
 31
0.0
  0
LINE
  5
309
330
70
100
AcDbEntity
  8
팀플 평면 최종 v6_0
100
AcDbLine
 10
10.0996
 20
314.3
 30
0.0
 11
10.0817
 21
314.3
 31
0.0
  0
LINE
  5
30A
330
70
100
AcDbEntity
  8
팀플 평면 최종 v6_0
100
AcDbLine
 10
13.0142
 20
260.142
 30
0.0
 11
13.0004
 21
260.1100000000001
 31
0.0
  0
LINE
  5
30B
330
70
100
AcDbEntity
  8
팀플 평면 최종 v6_0
100
AcDbLine
 10
10.0996
 20
254.301
 30
0.0
 11
10.0817
 21
254.301
 31
0.0
  0
LINE
  5
30C
330
70
100
AcDbEntity
  8
팀플 평면 최종 v6_0
100
AcDbLine
 10
10.0004
 20
254.2
 30
0.0
 11
10.0004
 21
248.2
 31
0.0
  0
LINE
  5
30D
330
70
100
AcDbEntity
  8
팀플 평면 최종 v6_0
100
AcDbLine
 10
10.0004
 20
272.183
 30
0.0
 11
10.0294
 21
272.13
 31
0.0
  0
LINE
  5
30E
330
70
100
AcDbEntity
  8
팀플 평면 최종 v6_0
100
AcDbLine
 10
10.0817
 20
254.301
 30
0.0
 11
10.0294
 21
254.272
 31
0.0
  0
LINE
  5
30F
330
70
100
AcDbEntity
  8
팀플 평면 최종 v6_0
100
AcDbLine
 10
13.0101
 20
254.301
 30
0.0
 11
13.0004
 21
254.301
 31
0.0
  0
LINE
  5
310
330
70
100
AcDbEntity
  8
팀플 평면 최종 v6_0
100
AcDbLine
 10
10.0996
 20
266.3
 30
0.0
 11
10.0817
 21
266.3
 31
0.0
  0
LINE
  5
311
330
70
100
AcDbEntity
  8
팀플 평면 최종 v6_0
100
AcDbLine
 10
13.0376
 20
248.138
 30
0.0
 11
13.0142
 21
248.143
 31
0.0
  0
LINE
  5
312
330
70
100
AcDbEntity
  8
팀플 평면 최종 v6_0
100
AcDbLine
 10
13.0817
 20
228.1
 30
0.0
 11
13.0996
 21
228.1
 31
0.0
  0
LINE
  5
313
330
70
100
AcDbEntity
  8
팀플 평면 최종 v6_0
100
AcDbLine
 10
10.0294
 20
266.271
 30
0.0
 11
10.0004
 21
266.218
 31
0.0
  0
LINE
  5
314
330
70
100
AcDbEntity
  8
팀플 평면 최종 v6_0
100
AcDbLine
 10
10.0996
 20
248.1
 30
0.0
 11
13.0004
 21
248.1
 31
0.0
  0
LINE
  5
315
330
70
100
AcDbEntity
  8
팀플 평면 최종 v6_0
100
AcDbLine
 10
10.0817
 20
248.1
 30
0.0
 11
10.0996
 21
248.1
 31
0.0
  0
LINE
  5
316
330
70
100
AcDbEntity
  8
팀플 평면 최종 v6_0
100
AcDbLine
 10
13.0142
 20
278.259
 30
0.0
 11
13.0376
 21
278.263
 31
0.0
  0
LINE
  5
317
330
70
100
AcDbEntity
  8
팀플 평면 최종 v6_0
100
AcDbLine
 10
13.0142
 20
272.143
 30
0.0
 11
13.0004
 21
272.112
 31
0.0
  0
LINE
  5
318
330
70
100
AcDbEntity
  8
팀플 평면 최종 v6_0
100
AcDbLine
 10
10.0996
 20
242.3
 30
0.0
 11
10.0817
 21
242.3
 31
0.0
  0
LINE
  5
319
330
70
100
AcDbEntity
  8
팀플 평면 최종 v6_0
100
AcDbLine
 10
13.0004
 20
266.3
 30
0.0
 11
10.0996
 21
266.3
 31
0.0
  0
LINE
  5
31A
330
70
100
AcDbEntity
  8
팀플 평면 최종 v6_0
100
AcDbLine
 10
13.0376
 20
266.263
 30
0.0
 11
13.0418
 21
266.2870000000001
 31
0.0
  0
LINE
  5
31B
330
70
100
AcDbEntity
  8
팀플 평면 최종 v6_0
100
AcDbLine
 10
13.0376
 20
272.138
 30
0.0
 11
13.0142
 21
272.143
 31
0.0
  0
LINE
  5
31C
330
70
100
AcDbEntity
  8
팀플 평면 최종 v6_0
100
AcDbLine
 10
13.0004
 20
228.184
 30
0.0
 11
13.0294
 21
228.13
 31
0.0
  0
LINE
  5
31D
330
70
100
AcDbEntity
  8
팀플 평면 최종 v6_0
100
AcDbLine
 10
10.0817
 20
266.3
 30
0.0
 11
10.0294
 21
266.271
 31
0.0
  0
LINE
  5
31E
330
70
100
AcDbEntity
  8
팀플 평면 최종 v6_0
100
AcDbLine
 10
10.0004
 20
260.2
 30
0.0
 11
10.0004
 21
260.183
 31
0.0
  0
LINE
  5
31F
330
70
100
AcDbEntity
  8
팀플 평면 최종 v6_0
100
AcDbLine
 10
13.0004
 20
236.101
 30
0.0
 11
13.0004
 21
228.2
 31
0.0
  0
LINE
  5
320
330
70
100
AcDbEntity
  8
팀플 평면 최종 v6_0
100
AcDbLine
 10
13.0004
 20
228.2
 30
0.0
 11
13.0004
 21
228.184
 31
0.0
  0
LINE
  5
321
330
70
100
AcDbEntity
  8
팀플 평면 최종 v6_0
100
AcDbLine
 10
13.0101
 20
266.3
 30
0.0
 11
13.0004
 21
266.3
 31
0.0
  0
LINE
  5
322
330
70
100
AcDbEntity
  8
팀플 평면 최종 v6_0
100
AcDbLine
 10
13.0418
 20
248.116
 30
0.0
 11
13.0376
 21
248.138
 31
0.0
  0
LINE
  5
323
330
70
100
AcDbEntity
  8
팀플 평면 최종 v6_0
100
AcDbLine
 10
13.0004
 20
236.112
 30
0.0
 11
13.0004
 21
236.101
 31
0.0
  0
LINE
  5
324
330
70
100
AcDbEntity
  8
팀플 평면 최종 v6_0
100
AcDbLine
 10
13.0004
 20
236.101
 30
0.0
 11
13.0101
 21
236.101
 31
0.0
  0
LINE
  5
325
330
70
100
AcDbEntity
  8
팀플 평면 최종 v6_0
100
AcDbLine
 10
13.0142
 20
242.259
 30
0.0
 11
13.0376
 21
242.263
 31
0.0
  0
LINE
  5
326
330
70
100
AcDbEntity
  8
팀플 평면 최종 v6_0
100
AcDbLine
 10
13.0101
 20
236.101
 30
0.0
 11
13.0418
 21
236.116
 31
0.0
  0
LINE
  5
327
330
70
100
AcDbEntity
  8
팀플 평면 최종 v6_0
100
AcDbLine
 10
10.0996
 20
236.101
 30
0.0
 11
13.0004
 21
236.101
 31
0.0
  0
LINE
  5
328
330
70
100
AcDbEntity
  8
팀플 평면 최종 v6_0
100
AcDbLine
 10
10.0294
 20
236.13
 30
0.0
 11
10.0817
 21
236.101
 31
0.0
  0
LINE
  5
329
330
70
100
AcDbEntity
  8
팀플 평면 최종 v6_0
100
AcDbLine
 10
13.0101
 20
248.1
 30
0.0
 11
13.0418
 21
248.116
 31
0.0
  0
LINE
  5
32A
330
70
100
AcDbEntity
  8
팀플 평면 최종 v6_0
100
AcDbLine
 10
10.0004
 20
236.183
 30
0.0
 11
10.0294
 21
236.13
 31
0.0
  0
LINE
  5
32B
330
70
100
AcDbEntity
  8
팀플 평면 최종 v6_0
100
AcDbLine
 10
13.0004
 20
248.112
 30
0.0
 11
13.0004
 21
248.1
 31
0.0
  0
LINE
  5
32C
330
70
100
AcDbEntity
  8
팀플 평면 최종 v6_0
100
AcDbLine
 10
10.0996
 20
272.101
 30
0.0
 11
13.0004
 21
272.101
 31
0.0
  0
LINE
  5
32D
330
70
100
AcDbEntity
  8
팀플 평면 최종 v6_0
100
AcDbLine
 10
10.0004
 20
278.217
 30
0.0
 11
10.0004
 21
278.2
 31
0.0
  0
LINE
  5
32E
330
70
100
AcDbEntity
  8
팀플 평면 최종 v6_0
100
AcDbLine
 10
13.0376
 20
236.138
 30
0.0
 11
13.0142
 21
236.143
 31
0.0
  0
LINE
  5
32F
330
70
100
AcDbEntity
  8
팀플 평면 최종 v6_0
100
AcDbLine
 10
10.0004
 20
242.2
 30
0.0
 11
10.0004
 21
236.2
 31
0.0
  0
LINE
  5
330
330
70
100
AcDbEntity
  8
팀플 평면 최종 v6_0
100
AcDbLine
 10
10.0817
 20
236.101
 30
0.0
 11
10.0996
 21
236.101
 31
0.0
  0
LINE
  5
331
330
70
100
AcDbEntity
  8
팀플 평면 최종 v6_0
100
AcDbLine
 10
10.0004
 20
242.218
 30
0.0
 11
10.0004
 21
242.2
 31
0.0
  0
LINE
  5
332
330
70
100
AcDbEntity
  8
팀플 평면 최종 v6_0
100
AcDbLine
 10
13.0004
 20
242.291
 30
0.0
 11
13.0142
 21
242.259
 31
0.0
  0
LINE
  5
333
330
70
100
AcDbEntity
  8
팀플 평면 최종 v6_0
100
AcDbLine
 10
13.0418
 20
236.116
 30
0.0
 11
13.0376
 21
236.138
 31
0.0
  0
LINE
  5
334
330
70
100
AcDbEntity
  8
팀플 평면 최종 v6_0
100
AcDbLine
 10
13.0101
 20
272.101
 30
0.0
 11
13.0418
 21
272.116
 31
0.0
  0
LINE
  5
335
330
70
100
AcDbEntity
  8
팀플 평면 최종 v6_0
100
AcDbLine
 10
13.0142
 20
236.143
 30
0.0
 11
13.0004
 21
236.112
 31
0.0
  0
LINE
  5
336
330
70
100
AcDbEntity
  8
팀플 평면 최종 v6_0
100
AcDbLine
 10
13.0004
 20
242.3
 30
0.0
 11
10.0996
 21
242.3
 31
0.0
  0
LINE
  5
337
330
70
100
AcDbEntity
  8
팀플 평면 최종 v6_0
100
AcDbLine
 10
10.0294
 20
242.272
 30
0.0
 11
10.0004
 21
242.218
 31
0.0
  0
LINE
  5
338
330
70
100
AcDbEntity
  8
팀플 평면 최종 v6_0
100
AcDbLine
 10
13.0101
 20
242.3
 30
0.0
 11
13.0004
 21
242.3
 31
0.0
  0
LINE
  5
339
330
70
100
AcDbEntity
  8
팀플 평면 최종 v6_0
100
AcDbLine
 10
10.0294
 20
260.13
 30
0.0
 11
10.0817
 21
260.099
 31
0.0
  0
LINE
  5
33A
330
70
100
AcDbEntity
  8
팀플 평면 최종 v6_0
100
AcDbLine
 10
13.0004
 20
260.099
 30
0.0
 11
13.0101
 21
260.099
 31
0.0
  0
LINE
  5
33B
330
70
100
AcDbEntity
  8
팀플 평면 최종 v6_0
100
AcDbLine
 10
13.0418
 20
242.287
 30
0.0
 11
13.0101
 21
242.3
 31
0.0
  0
LINE
  5
33C
330
70
100
AcDbEntity
  8
팀플 평면 최종 v6_0
100
AcDbLine
 10
10.0817
 20
242.3
 30
0.0
 11
10.0294
 21
242.272
 31
0.0
  0
LINE
  5
33D
330
70
100
AcDbEntity
  8
팀플 평면 최종 v6_0
100
AcDbLine
 10
13.0376
 20
242.263
 30
0.0
 11
13.0418
 21
242.287
 31
0.0
  0
LINE
  5
33E
330
70
100
AcDbEntity
  8
팀플 평면 최종 v6_0
100
AcDbLine
 10
13.0004
 20
248.1
 30
0.0
 11
13.0004
 21
242.3
 31
0.0
  0
LINE
  5
33F
330
70
100
AcDbEntity
  8
팀플 평면 최종 v6_0
100
AcDbLine
 10
13.0142
 20
248.143
 30
0.0
 11
13.0004
 21
248.112
 31
0.0
  0
LINE
  5
340
330
70
100
AcDbEntity
  8
팀플 평면 최종 v6_0
100
AcDbLine
 10
10.0004
 20
236.2
 30
0.0
 11
10.0004
 21
236.183
 31
0.0
  0
LINE
  5
341
330
70
100
AcDbEntity
  8
팀플 평면 최종 v6_0
100
AcDbLine
 10
13.0004
 20
242.3
 30
0.0
 11
13.0004
 21
242.291
 31
0.0
  0
LINE
  5
342
330
70
100
AcDbEntity
  8
팀플 평면 최종 v6_0
100
AcDbLine
 10
10.0996
 20
260.099
 30
0.0
 11
13.0004
 21
260.099
 31
0.0
  0
LINE
  5
343
330
70
100
AcDbEntity
  8
팀플 평면 최종 v6_0
100
AcDbLine
 10
282.2
 20
284.111
 30
0.0
 11
282.185
 21
284.143
 31
0.0
  0
LINE
  5
344
330
70
100
AcDbEntity
  8
팀플 평면 최종 v6_0
100
AcDbLine
 10
282.157
 20
254.287
 30
0.0
 11
282.162
 21
254.263
 31
0.0
  0
LINE
  5
345
330
70
100
AcDbEntity
  8
팀플 평면 최종 v6_0
100
AcDbLine
 10
285.116
 20
290.3
 30
0.0
 11
285.099
 21
290.3
 31
0.0
  0
LINE
  5
346
330
70
100
AcDbEntity
  8
팀플 평면 최종 v6_0
100
AcDbLine
 10
282.185
 20
254.259
 30
0.0
 11
282.2
 21
254.291
 31
0.0
  0
LINE
  5
347
330
70
100
AcDbEntity
  8
팀플 평면 최종 v6_0
100
AcDbLine
 10
282.2
 20
266.3
 30
0.0
 11
282.1890000000001
 21
266.3
 31
0.0
  0
LINE
  5
348
330
70
100
AcDbEntity
  8
팀플 평면 최종 v6_0
100
AcDbLine
 10
282.1890000000001
 20
254.301
 30
0.0
 11
282.157
 21
254.287
 31
0.0
  0
LINE
  5
349
330
70
100
AcDbEntity
  8
팀플 평면 최종 v6_0
100
AcDbLine
 10
285.2
 20
314.2
 30
0.0
 11
285.2
 21
314.2170000000001
 31
0.0
  0
LINE
  5
34A
330
70
100
AcDbEntity
  8
팀플 평면 최종 v6_0
100
AcDbLine
 10
282.2
 20
260.099
 30
0.0
 11
282.2
 21
260.1100000000001
 31
0.0
  0
LINE
  5
34B
330
70
100
AcDbEntity
  8
팀플 평면 최종 v6_0
100
AcDbLine
 10
282.157
 20
296.116
 30
0.0
 11
282.1890000000001
 21
296.101
 31
0.0
  0
LINE
  5
34C
330
70
100
AcDbEntity
  8
팀플 평면 최종 v6_0
100
AcDbLine
 10
285.17
 20
272.13
 30
0.0
 11
285.2
 21
272.183
 31
0.0
  0
LINE
  5
34D
330
70
100
AcDbEntity
  8
팀플 평면 최종 v6_0
100
AcDbLine
 10
285.099
 20
272.101
 30
0.0
 11
285.1160000000001
 21
272.101
 31
0.0
  0
LINE
  5
34E
330
70
100
AcDbEntity
  8
팀플 평면 최종 v6_0
100
AcDbLine
 10
282.162
 20
272.138
 30
0.0
 11
282.157
 21
272.116
 31
0.0
  0
LINE
  5
34F
330
70
100
AcDbEntity
  8
팀플 평면 최종 v6_0
100
AcDbLine
 10
282.185
 20
272.143
 30
0.0
 11
282.162
 21
272.138
 31
0.0
  0
LINE
  5
350
330
70
100
AcDbEntity
  8
팀플 평면 최종 v6_0
100
AcDbLine
 10
282.1890000000001
 20
290.3
 30
0.0
 11
282.157
 21
290.286
 31
0.0
  0
LINE
  5
351
330
70
100
AcDbEntity
  8
팀플 평면 최종 v6_0
100
AcDbLine
 10
285.116
 20
278.3
 30
0.0
 11
285.099
 21
278.3
 31
0.0
  0
LINE
  5
352
330
70
100
AcDbEntity
  8
팀플 평면 최종 v6_0
100
AcDbLine
 10
282.2
 20
272.101
 30
0.0
 11
285.099
 21
272.101
 31
0.0
  0
LINE
  5
353
330
70
100
AcDbEntity
  8
팀플 평면 최종 v6_0
100
AcDbLine
 10
282.2
 20
266.3
 30
0.0
 11
282.2
 21
272.101
 31
0.0
  0
LINE
  5
354
330
70
100
AcDbEntity
  8
팀플 평면 최종 v6_0
100
AcDbLine
 10
282.2
 20
260.099
 30
0.0
 11
285.099
 21
260.099
 31
0.0
  0
LINE
  5
355
330
70
100
AcDbEntity
  8
팀플 평면 최종 v6_0
100
AcDbLine
 10
285.17
 20
254.272
 30
0.0
 11
285.116
 21
254.301
 31
0.0
  0
LINE
  5
356
330
70
100
AcDbEntity
  8
팀플 평면 최종 v6_0
100
AcDbLine
 10
285.2
 20
248.2
 30
0.0
 11
285.2
 21
254.2
 31
0.0
  0
LINE
  5
357
330
70
100
AcDbEntity
  8
팀플 평면 최종 v6_0
100
AcDbLine
 10
285.2
 20
254.218
 30
0.0
 11
285.17
 21
254.272
 31
0.0
  0
LINE
  5
358
330
70
100
AcDbEntity
  8
팀플 평면 최종 v6_0
100
AcDbLine
 10
285.2
 20
290.218
 30
0.0
 11
285.17
 21
290.2709999999999
 31
0.0
  0
LINE
  5
359
330
70
100
AcDbEntity
  8
팀플 평면 최종 v6_0
100
AcDbLine
 10
282.185
 20
260.142
 30
0.0
 11
282.162
 21
260.138
 31
0.0
  0
LINE
  5
35A
330
70
100
AcDbEntity
  8
팀플 평면 최종 v6_0
100
AcDbLine
 10
285.17
 20
278.271
 30
0.0
 11
285.116
 21
278.3
 31
0.0
  0
LINE
  5
35B
330
70
100
AcDbEntity
  8
팀플 평면 최종 v6_0
100
AcDbLine
 10
285.17
 20
296.129
 30
0.0
 11
285.2
 21
296.183
 31
0.0
  0
LINE
  5
35C
330
70
100
AcDbEntity
  8
팀플 평면 최종 v6_0
100
AcDbLine
 10
282.2
 20
284.1
 30
0.0
 11
285.099
 21
284.1
 31
0.0
  0
LINE
  5
35D
330
70
100
AcDbEntity
  8
팀플 평면 최종 v6_0
100
AcDbLine
 10
282.2
 20
302.291
 30
0.0
 11
282.2
 21
302.3000000000001
 31
0.0
  0
LINE
  5
35E
330
70
100
AcDbEntity
  8
팀플 평면 최종 v6_0
100
AcDbLine
 10
282.157
 20
272.116
 30
0.0
 11
282.1890000000001
 21
272.101
 31
0.0
  0
LINE
  5
35F
330
70
100
AcDbEntity
  8
팀플 평면 최종 v6_0
100
AcDbLine
 10
282.2
 20
266.291
 30
0.0
 11
282.2
 21
266.3
 31
0.0
  0
LINE
  5
360
330
70
100
AcDbEntity
  8
팀플 평면 최종 v6_0
100
AcDbLine
 10
285.2
 20
278.217
 30
0.0
 11
285.17
 21
278.271
 31
0.0
  0
LINE
  5
361
330
70
100
AcDbEntity
  8
팀플 평면 최종 v6_0
100
AcDbLine
 10
282.2
 20
272.1120000000001
 30
0.0
 11
282.185
 21
272.143
 31
0.0
  0
LINE
  5
362
330
70
100
AcDbEntity
  8
팀플 평면 최종 v6_0
100
AcDbLine
 10
285.2
 20
266.2
 30
0.0
 11
285.2
 21
266.218
 31
0.0
  0
LINE
  5
363
330
70
100
AcDbEntity
  8
팀플 평면 최종 v6_0
100
AcDbLine
 10
282.185
 20
278.259
 30
0.0
 11
282.2
 21
278.291
 31
0.0
  0
LINE
  5
364
330
70
100
AcDbEntity
  8
팀플 평면 최종 v6_0
100
AcDbLine
 10
282.185
 20
290.259
 30
0.0
 11
282.2
 21
290.291
 31
0.0
  0
LINE
  5
365
330
70
100
AcDbEntity
  8
팀플 평면 최종 v6_0
100
AcDbLine
 10
282.162
 20
302.263
 30
0.0
 11
282.185
 21
302.259
 31
0.0
  0
LINE
  5
366
330
70
100
AcDbEntity
  8
팀플 평면 최종 v6_0
100
AcDbLine
 10
282.1890000000001
 20
260.099
 30
0.0
 11
282.2
 21
260.099
 31
0.0
  0
LINE
  5
367
330
70
100
AcDbEntity
  8
팀플 평면 최종 v6_0
100
AcDbLine
 10
285.116
 20
260.099
 30
0.0
 11
285.17
 21
260.1300000000001
 31
0.0
  0
LINE
  5
368
330
70
100
AcDbEntity
  8
팀플 평면 최종 v6_0
100
AcDbLine
 10
285.2
 20
278.2
 30
0.0
 11
285.2
 21
278.217
 31
0.0
  0
LINE
  5
369
330
70
100
AcDbEntity
  8
팀플 평면 최종 v6_0
100
AcDbLine
 10
285.099
 20
248.1
 30
0.0
 11
285.1160000000001
 21
248.1
 31
0.0
  0
LINE
  5
36A
330
70
100
AcDbEntity
  8
팀플 평면 최종 v6_0
100
AcDbLine
 10
282.2
 20
308.1
 30
0.0
 11
282.2
 21
308.112
 31
0.0
  0
LINE
  5
36B
330
70
100
AcDbEntity
  8
팀플 평면 최종 v6_0
100
AcDbLine
 10
285.2
 20
260.183
 30
0.0
 11
285.2
 21
260.2
 31
0.0
  0
LINE
  5
36C
330
70
100
AcDbEntity
  8
팀플 평면 최종 v6_0
100
AcDbLine
 10
285.099
 20
278.3
 30
0.0
 11
282.2
 21
278.3
 31
0.0
  0
LINE
  5
36D
330
70
100
AcDbEntity
  8
팀플 평면 최종 v6_0
100
AcDbLine
 10
285.099
 20
296.101
 30
0.0
 11
285.1160000000001
 21
296.101
 31
0.0
  0
LINE
  5
36E
330
70
100
AcDbEntity
  8
팀플 평면 최종 v6_0
100
AcDbLine
 10
285.116
 20
302.3000000000001
 30
0.0
 11
285.099
 21
302.3000000000001
 31
0.0
  0
LINE
  5
36F
330
70
100
AcDbEntity
  8
팀플 평면 최종 v6_0
100
AcDbLine
 10
282.162
 20
266.263
 30
0.0
 11
282.185
 21
266.259
 31
0.0
  0
LINE
  5
370
330
70
100
AcDbEntity
  8
팀플 평면 최종 v6_0
100
AcDbLine
 10
282.1890000000001
 20
272.101
 30
0.0
 11
282.2
 21
272.101
 31
0.0
  0
LINE
  5
371
330
70
100
AcDbEntity
  8
팀플 평면 최종 v6_0
100
AcDbLine
 10
285.099
 20
266.3
 30
0.0
 11
282.2
 21
266.3
 31
0.0
  0
LINE
  5
372
330
70
100
AcDbEntity
  8
팀플 평면 최종 v6_0
100
AcDbLine
 10
285.17
 20
284.129
 30
0.0
 11
285.2
 21
284.183
 31
0.0
  0
LINE
  5
373
330
70
100
AcDbEntity
  8
팀플 평면 최종 v6_0
100
AcDbLine
 10
285.099
 20
260.099
 30
0.0
 11
285.1160000000001
 21
260.099
 31
0.0
  0
LINE
  5
374
330
70
100
AcDbEntity
  8
팀플 평면 최종 v6_0
100
AcDbLine
 10
282.1890000000001
 20
278.3
 30
0.0
 11
282.157
 21
278.287
 31
0.0
  0
LINE
  5
375
330
70
100
AcDbEntity
  8
팀플 평면 최종 v6_0
100
AcDbLine
 10
282.2
 20
278.3
 30
0.0
 11
282.1890000000001
 21
278.3
 31
0.0
  0
LINE
  5
376
330
70
100
AcDbEntity
  8
팀플 평면 최종 v6_0
100
AcDbLine
 10
13.0004
 20
248.1
 30
0.0
 11
13.0101
 21
248.1
 31
0.0
  0
LINE
  5
377
330
70
100
AcDbEntity
  8
팀플 평면 최종 v6_0
100
AcDbLine
 10
285.2
 20
290.2
 30
0.0
 11
285.2
 21
290.218
 31
0.0
  0
LINE
  5
378
330
70
100
AcDbEntity
  8
팀플 평면 최종 v6_0
100
AcDbLine
 10
282.2
 20
290.3
 30
0.0
 11
282.1890000000001
 21
290.3
 31
0.0
  0
LINE
  5
379
330
70
100
AcDbEntity
  8
팀플 평면 최종 v6_0
100
AcDbLine
 10
282.162
 20
254.263
 30
0.0
 11
282.185
 21
254.259
 31
0.0
  0
LINE
  5
37A
330
70
100
AcDbEntity
  8
팀플 평면 최종 v6_0
100
AcDbLine
 10
282.185
 20
284.143
 30
0.0
 11
282.162
 21
284.138
 31
0.0
  0
LINE
  5
37B
330
70
100
AcDbEntity
  8
팀플 평면 최종 v6_0
100
AcDbLine
 10
285.2
 20
272.183
 30
0.0
 11
285.2
 21
272.2
 31
0.0
  0
LINE
  5
37C
330
70
100
AcDbEntity
  8
팀플 평면 최종 v6_0
100
AcDbLine
 10
282.157
 20
260.114
 30
0.0
 11
282.1890000000001
 21
260.099
 31
0.0
  0
LINE
  5
37D
330
70
100
AcDbEntity
  8
팀플 평면 최종 v6_0
100
AcDbLine
 10
285.116
 20
284.1
 30
0.0
 11
285.17
 21
284.129
 31
0.0
  0
LINE
  5
37E
330
70
100
AcDbEntity
  8
팀플 평면 최종 v6_0
100
AcDbLine
 10
282.162
 20
284.138
 30
0.0
 11
282.157
 21
284.116
 31
0.0
  0
LINE
  5
37F
330
70
100
AcDbEntity
  8
팀플 평면 최종 v6_0
100
AcDbLine
 10
285.2
 20
284.2
 30
0.0
 11
285.2
 21
290.2000000000001
 31
0.0
  0
LINE
  5
380
330
70
100
AcDbEntity
  8
팀플 평면 최종 v6_0
100
AcDbLine
 10
282.1890000000001
 20
308.1
 30
0.0
 11
282.2
 21
308.1
 31
0.0
  0
LINE
  5
381
330
70
100
AcDbEntity
  8
팀플 평면 최종 v6_0
100
AcDbLine
 10
282.1890000000001
 20
302.3000000000001
 30
0.0
 11
282.157
 21
302.286
 31
0.0
  0
LINE
  5
382
330
70
100
AcDbEntity
  8
팀플 평면 최종 v6_0
100
AcDbLine
 10
282.2
 20
278.3
 30
0.0
 11
282.2
 21
284.1
 31
0.0
  0
LINE
  5
383
330
70
100
AcDbEntity
  8
팀플 평면 최종 v6_0
100
AcDbLine
 10
285.2
 20
308.183
 30
0.0
 11
285.2
 21
308.2
 31
0.0
  0
LINE
  5
384
330
70
100
AcDbEntity
  8
팀플 평면 최종 v6_0
100
AcDbLine
 10
282.2
 20
296.101
 30
0.0
 11
282.2
 21
296.111
 31
0.0
  0
LINE
  5
385
330
70
100
AcDbEntity
  8
팀플 평면 최종 v6_0
100
AcDbLine
 10
282.2
 20
290.3
 30
0.0
 11
282.2
 21
296.101
 31
0.0
  0
LINE
  5
386
330
70
100
AcDbEntity
  8
팀플 평면 최종 v6_0
100
AcDbLine
 10
285.116
 20
296.101
 30
0.0
 11
285.17
 21
296.129
 31
0.0
  0
LINE
  5
387
330
70
100
AcDbEntity
  8
팀플 평면 최종 v6_0
100
AcDbLine
 10
282.162
 20
290.263
 30
0.0
 11
282.185
 21
290.259
 31
0.0
  0
LINE
  5
388
330
70
100
AcDbEntity
  8
팀플 평면 최종 v6_0
100
AcDbLine
 10
282.157
 20
302.286
 30
0.0
 11
282.162
 21
302.263
 31
0.0
  0
LINE
  5
389
330
70
100
AcDbEntity
  8
팀플 평면 최종 v6_0
100
AcDbLine
 10
285.2
 20
284.183
 30
0.0
 11
285.2
 21
284.2
 31
0.0
  0
LINE
  5
38A
330
70
100
AcDbEntity
  8
팀플 평면 최종 v6_0
100
AcDbLine
 10
282.162
 20
332.1369999999999
 30
0.0
 11
282.157
 21
332.116
 31
0.0
  0
LINE
  5
38B
330
70
100
AcDbEntity
  8
팀플 평면 최종 v6_0
100
AcDbLine
 10
282.2
 20
296.111
 30
0.0
 11
282.185
 21
296.143
 31
0.0
  0
LINE
  5
38C
330
70
100
AcDbEntity
  8
팀플 평면 최종 v6_0
100
AcDbLine
 10
282.2
 20
290.291
 30
0.0
 11
282.2
 21
290.3
 31
0.0
  0
LINE
  5
38D
330
70
100
AcDbEntity
  8
팀플 평면 최종 v6_0
100
AcDbLine
 10
282.162
 20
296.138
 30
0.0
 11
282.157
 21
296.116
 31
0.0
  0
LINE
  5
38E
330
70
100
AcDbEntity
  8
팀플 평면 최종 v6_0
100
AcDbLine
 10
282.1890000000001
 20
332.1
 30
0.0
 11
282.2
 21
332.1
 31
0.0
  0
LINE
  5
38F
330
70
100
AcDbEntity
  8
팀플 평면 최종 v6_0
100
AcDbLine
 10
285.2
 20
302.218
 30
0.0
 11
285.17
 21
302.271
 31
0.0
  0
LINE
  5
390
330
70
100
AcDbEntity
  8
팀플 평면 최종 v6_0
100
AcDbLine
 10
285.099
 20
284.1
 30
0.0
 11
285.1160000000001
 21
284.1
 31
0.0
  0
LINE
  5
391
330
70
100
AcDbEntity
  8
팀플 평면 최종 v6_0
100
AcDbLine
 10
285.17
 20
290.2709999999999
 30
0.0
 11
285.116
 21
290.3
 31
0.0
  0
LINE
  5
392
330
70
100
AcDbEntity
  8
팀플 평면 최종 v6_0
100
AcDbLine
 10
282.2
 20
332.1
 30
0.0
 11
285.099
 21
332.1
 31
0.0
  0
LINE
  5
393
330
70
100
AcDbEntity
  8
팀플 평면 최종 v6_0
100
AcDbLine
 10
282.1890000000001
 20
284.1
 30
0.0
 11
282.2
 21
284.1
 31
0.0
  0
LINE
  5
394
330
70
100
AcDbEntity
  8
팀플 평면 최종 v6_0
100
AcDbLine
 10
282.157
 20
290.286
 30
0.0
 11
282.162
 21
290.263
 31
0.0
  0
LINE
  5
395
330
70
100
AcDbEntity
  8
팀플 평면 최종 v6_0
100
AcDbLine
 10
282.162
 20
308.138
 30
0.0
 11
282.157
 21
308.1150000000001
 31
0.0
  0
LINE
  5
396
330
70
100
AcDbEntity
  8
팀플 평면 최종 v6_0
100
AcDbLine
 10
282.157
 20
308.115
 30
0.0
 11
282.1890000000001
 21
308.1
 31
0.0
  0
LINE
  5
397
330
70
100
AcDbEntity
  8
팀플 평면 최종 v6_0
100
AcDbLine
 10
285.2
 20
296.2
 30
0.0
 11
285.2
 21
302.2
 31
0.0
  0
LINE
  5
398
330
70
100
AcDbEntity
  8
팀플 평면 최종 v6_0
100
AcDbLine
 10
282.185
 20
296.143
 30
0.0
 11
282.162
 21
296.1380000000001
 31
0.0
  0
LINE
  5
399
330
70
100
AcDbEntity
  8
팀플 평면 최종 v6_0
100
AcDbLine
 10
282.2
 20
248.1
 30
0.0
 11
285.099
 21
248.1
 31
0.0
  0
LINE
  5
39A
330
70
100
AcDbEntity
  8
팀플 평면 최종 v6_0
100
AcDbLine
 10
285.116
 20
308.1
 30
0.0
 11
285.17
 21
308.13
 31
0.0
  0
LINE
  5
39B
330
70
100
AcDbEntity
  8
팀플 평면 최종 v6_0
100
AcDbLine
 10
285.116
 20
272.101
 30
0.0
 11
285.17
 21
272.13
 31
0.0
  0
LINE
  5
39C
330
70
100
AcDbEntity
  8
팀플 평면 최종 v6_0
100
AcDbLine
 10
282.2
 20
296.101
 30
0.0
 11
285.099
 21
296.101
 31
0.0
  0
LINE
  5
39D
330
70
100
AcDbEntity
  8
팀플 평면 최종 v6_0
100
AcDbLine
 10
282.185
 20
308.143
 30
0.0
 11
282.162
 21
308.138
 31
0.0
  0
LINE
  5
39E
330
70
100
AcDbEntity
  8
팀플 평면 최종 v6_0
100
AcDbLine
 10
282.2
 20
320.111
 30
0.0
 11
282.185
 21
320.143
 31
0.0
  0
LINE
  5
39F
330
70
100
AcDbEntity
  8
팀플 평면 최종 v6_0
100
AcDbLine
 10
282.2
 20
284.1
 30
0.0
 11
282.2
 21
284.111
 31
0.0
  0
LINE
  5
3A0
330
70
100
AcDbEntity
  8
팀플 평면 최종 v6_0
100
AcDbLine
 10
285.17
 20
308.13
 30
0.0
 11
285.2
 21
308.183
 31
0.0
  0
LINE
  5
3A1
330
70
100
AcDbEntity
  8
팀플 평면 최종 v6_0
100
AcDbLine
 10
285.099
 20
302.3000000000001
 30
0.0
 11
282.2
 21
302.3000000000001
 31
0.0
  0
LINE
  5
3A2
330
70
100
AcDbEntity
  8
팀플 평면 최종 v6_0
100
AcDbLine
 10
282.2
 20
302.3000000000001
 30
0.0
 11
282.2
 21
308.1
 31
0.0
  0
LINE
  5
3A3
330
70
100
AcDbEntity
  8
팀플 평면 최종 v6_0
100
AcDbLine
 10
282.2
 20
314.3
 30
0.0
 11
282.2
 21
320.1
 31
0.0
  0
LINE
  5
3A4
330
70
100
AcDbEntity
  8
팀플 평면 최종 v6_0
100
AcDbLine
 10
285.2
 20
332.1830000000001
 30
0.0
 11
285.2
 21
332.2
 31
0.0
  0
LINE
  5
3A5
330
70
100
AcDbEntity
  8
팀플 평면 최종 v6_0
100
AcDbLine
 10
285.116
 20
320.1
 30
0.0
 11
285.17
 21
320.129
 31
0.0
  0
LINE
  5
3A6
330
70
100
AcDbEntity
  8
팀플 평면 최종 v6_0
100
AcDbLine
 10
285.2
 20
308.2
 30
0.0
 11
285.2
 21
314.2
 31
0.0
  0
LINE
  5
3A7
330
70
100
AcDbEntity
  8
팀플 평면 최종 v6_0
100
AcDbLine
 10
285.099
 20
290.3
 30
0.0
 11
282.2
 21
290.3
 31
0.0
  0
LINE
  5
3A8
330
70
100
AcDbEntity
  8
팀플 평면 최종 v6_0
100
AcDbLine
 10
282.2
 20
308.112
 30
0.0
 11
282.185
 21
308.143
 31
0.0
  0
LINE
  5
3A9
330
70
100
AcDbEntity
  8
팀플 평면 최종 v6_0
100
AcDbLine
 10
282.1890000000001
 20
296.101
 30
0.0
 11
282.2
 21
296.101
 31
0.0
  0
LINE
  5
3AA
330
70
100
AcDbEntity
  8
팀플 평면 최종 v6_0
100
AcDbLine
 10
285.099
 20
308.1
 30
0.0
 11
285.1160000000001
 21
308.1
 31
0.0
  0
LINE
  5
3AB
330
70
100
AcDbEntity
  8
팀플 평면 최종 v6_0
100
AcDbLine
 10
282.2
 20
278.291
 30
0.0
 11
282.2
 21
278.3
 31
0.0
  0
LINE
  5
3AC
330
70
100
AcDbEntity
  8
팀플 평면 최종 v6_0
100
AcDbLine
 10
285.2
 20
302.2
 30
0.0
 11
285.2
 21
302.218
 31
0.0
  0
LINE
  5
3AD
330
70
100
AcDbEntity
  8
팀플 평면 최종 v6_0
100
AcDbLine
 10
285.17
 20
302.271
 30
0.0
 11
285.116
 21
302.3
 31
0.0
  0
LINE
  5
3AE
330
70
100
AcDbEntity
  8
팀플 평면 최종 v6_0
100
AcDbLine
 10
282.157
 20
284.116
 30
0.0
 11
282.1890000000001
 21
284.1
 31
0.0
  0
LINE
  5
3AF
330
70
100
AcDbEntity
  8
팀플 평면 최종 v6_0
100
AcDbLine
 10
285.2
 20
296.183
 30
0.0
 11
285.2
 21
296.2
 31
0.0
  0
LINE
  5
3B0
330
70
100
AcDbEntity
  8
팀플 평면 최종 v6_0
100
AcDbLine
 10
282.185
 20
302.259
 30
0.0
 11
282.2
 21
302.291
 31
0.0
  0
LINE
  5
3B1
330
70
100
AcDbEntity
  8
팀플 평면 최종 v6_0
100
AcDbLine
 10
282.2
 20
302.3000000000001
 30
0.0
 11
282.1890000000001
 21
302.3000000000001
 31
0.0
  0
LINE
  5
3B2
330
70
100
AcDbEntity
  8
팀플 평면 최종 v6_0
100
AcDbLine
 10
282.2
 20
308.1
 30
0.0
 11
285.099
 21
308.1
 31
0.0
  0
LINE
  5
3B3
330
70
100
AcDbEntity
  8
팀플 평면 최종 v6_0
100
AcDbLine
 10
282.157
 20
320.1150000000001
 30
0.0
 11
282.1890000000001
 21
320.1000000000001
 31
0.0
  0
LINE
  5
3B4
330
70
100
AcDbEntity
  8
팀플 평면 최종 v6_0
100
AcDbLine
 10
285.17
 20
314.271
 30
0.0
 11
285.116
 21
314.3
 31
0.0
  0
LINE
  5
3B5
330
70
100
AcDbEntity
  8
팀플 평면 최종 v6_0
100
AcDbLine
 10
282.1890000000001
 20
338.3000000000001
 30
0.0
 11
282.157
 21
338.2860000000001
 31
0.0
  0
LINE
  5
3B6
330
70
100
AcDbEntity
  8
팀플 평면 최종 v6_0
100
AcDbLine
 10
282.157
 20
314.287
 30
0.0
 11
282.162
 21
314.2629999999999
 31
0.0
  0
LINE
  5
3B7
330
70
100
AcDbEntity
  8
팀플 평면 최종 v6_0
100
AcDbLine
 10
285.2
 20
368.184
 30
0.0
 11
285.2
 21
368.201
 31
0.0
  0
LINE
  5
3B8
330
70
100
AcDbEntity
  8
팀플 평면 최종 v6_0
100
AcDbLine
 10
285.2
 20
326.199
 30
0.0
 11
285.2
 21
326.217
 31
0.0
  0
LINE
  5
3B9
330
70
100
AcDbEntity
  8
팀플 평면 최종 v6_0
100
AcDbLine
 10
282.2
 20
350.29
 30
0.0
 11
282.2
 21
350.3
 31
0.0
  0
LINE
  5
3BA
330
70
100
AcDbEntity
  8
팀플 평면 최종 v6_0
100
AcDbLine
 10
285.2
 20
338.218
 30
0.0
 11
285.17
 21
338.2709999999999
 31
0.0
  0
LINE
  5
3BB
330
70
100
AcDbEntity
  8
팀플 평면 최종 v6_0
100
AcDbLine
 10
285.2
 20
332.2
 30
0.0
 11
285.2
 21
338.2
 31
0.0
  0
LINE
  5
3BC
330
70
100
AcDbEntity
  8
팀플 평면 최종 v6_0
100
AcDbLine
 10
285.099
 20
320.1
 30
0.0
 11
285.1160000000001
 21
320.1
 31
0.0
  0
LINE
  5
3BD
330
70
100
AcDbEntity
  8
팀플 평면 최종 v6_0
100
AcDbLine
 10
282.1890000000001
 20
314.3
 30
0.0
 11
282.157
 21
314.287
 31
0.0
  0
LINE
  5
3BE
330
70
100
AcDbEntity
  8
팀플 평면 최종 v6_0
100
AcDbLine
 10
282.185
 20
338.259
 30
0.0
 11
282.2
 21
338.291
 31
0.0
  0
LINE
  5
3BF
330
70
100
AcDbEntity
  8
팀플 평면 최종 v6_0
100
AcDbLine
 10
282.162
 20
338.263
 30
0.0
 11
282.185
 21
338.259
 31
0.0
  0
LINE
  5
3C0
330
70
100
AcDbEntity
  8
팀플 평면 최종 v6_0
100
AcDbLine
 10
285.116
 20
332.1
 30
0.0
 11
285.17
 21
332.1290000000001
 31
0.0
  0
LINE
  5
3C1
330
70
100
AcDbEntity
  8
팀플 평면 최종 v6_0
100
AcDbLine
 10
282.2
 20
368.099
 30
0.0
 11
282.2
 21
368.1090000000001
 31
0.0
  0
LINE
  5
3C2
330
70
100
AcDbEntity
  8
팀플 평면 최종 v6_0
100
AcDbLine
 10
282.1890000000001
 20
320.1
 30
0.0
 11
282.2
 21
320.1
 31
0.0
  0
LINE
  5
3C3
330
70
100
AcDbEntity
  8
팀플 평면 최종 v6_0
100
AcDbLine
 10
282.185
 20
320.143
 30
0.0
 11
282.162
 21
320.1379999999999
 31
0.0
  0
LINE
  5
3C4
330
70
100
AcDbEntity
  8
팀플 평면 최종 v6_0
100
AcDbLine
 10
285.2
 20
338.2
 30
0.0
 11
285.2
 21
338.218
 31
0.0
  0
LINE
  5
3C5
330
70
100
AcDbEntity
  8
팀플 평면 최종 v6_0
100
AcDbLine
 10
285.116
 20
338.3000000000001
 30
0.0
 11
285.099
 21
338.3000000000001
 31
0.0
  0
LINE
  5
3C6
330
70
100
AcDbEntity
  8
팀플 평면 최종 v6_0
100
AcDbLine
 10
282.162
 20
320.138
 30
0.0
 11
282.157
 21
320.1150000000001
 31
0.0
  0
LINE
  5
3C7
330
70
100
AcDbEntity
  8
팀플 평면 최종 v6_0
100
AcDbLine
 10
285.17
 20
332.129
 30
0.0
 11
285.2
 21
332.1830000000001
 31
0.0
  0
LINE
  5
3C8
330
70
100
AcDbEntity
  8
팀플 평면 최종 v6_0
100
AcDbLine
 10
282.2
 20
344.1
 30
0.0
 11
282.2
 21
344.111
 31
0.0
  0
LINE
  5
3C9
330
70
100
AcDbEntity
  8
팀플 평면 최종 v6_0
100
AcDbLine
 10
282.185
 20
344.143
 30
0.0
 11
282.162
 21
344.138
 31
0.0
  0
LINE
  5
3CA
330
70
100
AcDbEntity
  8
팀플 평면 최종 v6_0
100
AcDbLine
 10
285.2
 20
320.199
 30
0.0
 11
285.2
 21
326.199
 31
0.0
  0
LINE
  5
3CB
330
70
100
AcDbEntity
  8
팀플 평면 최종 v6_0
100
AcDbLine
 10
282.2
 20
338.2910000000001
 30
0.0
 11
282.2
 21
338.3000000000001
 31
0.0
  0
LINE
  5
3CC
330
70
100
AcDbEntity
  8
팀플 평면 최종 v6_0
100
AcDbLine
 10
285.099
 20
314.3
 30
0.0
 11
282.2
 21
314.3
 31
0.0
  0
LINE
  5
3CD
330
70
100
AcDbEntity
  8
팀플 평면 최종 v6_0
100
AcDbLine
 10
282.157
 20
332.116
 30
0.0
 11
282.1890000000001
 21
332.1
 31
0.0
  0
LINE
  5
3CE
330
70
100
AcDbEntity
  8
팀플 평면 최종 v6_0
100
AcDbLine
 10
285.2
 20
350.199
 30
0.0
 11
285.2
 21
350.217
 31
0.0
  0
LINE
  5
3CF
330
70
100
AcDbEntity
  8
팀플 평면 최종 v6_0
100
AcDbLine
 10
282.2
 20
320.1
 30
0.0
 11
285.099
 21
320.1
 31
0.0
  0
LINE
  5
3D0
330
70
100
AcDbEntity
  8
팀플 평면 최종 v6_0
100
AcDbLine
 10
282.162
 20
344.138
 30
0.0
 11
282.157
 21
344.1150000000001
 31
0.0
  0
LINE
  5
3D1
330
70
100
AcDbEntity
  8
팀플 평면 최종 v6_0
100
AcDbLine
 10
282.162
 20
314.263
 30
0.0
 11
282.185
 21
314.259
 31
0.0
  0
LINE
  5
3D2
330
70
100
AcDbEntity
  8
팀플 평면 최종 v6_0
100
AcDbLine
 10
285.099
 20
368.099
 30
0.0
 11
285.1160000000001
 21
368.099
 31
0.0
  0
LINE
  5
3D3
330
70
100
AcDbEntity
  8
팀플 평면 최종 v6_0
100
AcDbLine
 10
285.116
 20
326.3
 30
0.0
 11
285.099
 21
326.3
 31
0.0
  0
LINE
  5
3D4
330
70
100
AcDbEntity
  8
팀플 평면 최종 v6_0
100
AcDbLine
 10
282.185
 20
326.259
 30
0.0
 11
282.2
 21
326.291
 31
0.0
  0
LINE
  5
3D5
330
70
100
AcDbEntity
  8
팀플 평면 최종 v6_0
100
AcDbLine
 10
282.1890000000001
 20
326.3
 30
0.0
 11
282.157
 21
326.2859999999999
 31
0.0
  0
LINE
  5
3D6
330
70
100
AcDbEntity
  8
팀플 평면 최종 v6_0
100
AcDbLine
 10
282.162
 20
368.1380000000001
 30
0.0
 11
282.157
 21
368.117
 31
0.0
  0
LINE
  5
3D7
330
70
100
AcDbEntity
  8
팀플 평면 최종 v6_0
100
AcDbLine
 10
282.162
 20
350.263
 30
0.0
 11
282.185
 21
350.259
 31
0.0
  0
LINE
  5
3D8
330
70
100
AcDbEntity
  8
팀플 평면 최종 v6_0
100
AcDbLine
 10
282.2
 20
314.3
 30
0.0
 11
282.1890000000001
 21
314.3
 31
0.0
  0
LINE
  5
3D9
330
70
100
AcDbEntity
  8
팀플 평면 최종 v6_0
100
AcDbLine
 10
282.2
 20
320.1
 30
0.0
 11
282.2
 21
320.111
 31
0.0
  0
LINE
  5
3DA
330
70
100
AcDbEntity
  8
팀플 평면 최종 v6_0
100
AcDbLine
 10
282.185
 20
314.259
 30
0.0
 11
282.2
 21
314.29
 31
0.0
  0
LINE
  5
3DB
330
70
100
AcDbEntity
  8
팀플 평면 최종 v6_0
100
AcDbLine
 10
282.2
 20
338.3000000000001
 30
0.0
 11
282.2
 21
344.1
 31
0.0
  0
LINE
  5
3DC
330
70
100
AcDbEntity
  8
팀플 평면 최종 v6_0
100
AcDbLine
 10
282.2
 20
332.111
 30
0.0
 11
282.185
 21
332.143
 31
0.0
  0
LINE
  5
3DD
330
70
100
AcDbEntity
  8
팀플 평면 최종 v6_0
100
AcDbLine
 10
282.2
 20
338.3000000000001
 30
0.0
 11
282.1890000000001
 21
338.3000000000001
 31
0.0
  0
LINE
  5
3DE
330
70
100
AcDbEntity
  8
팀플 평면 최종 v6_0
100
AcDbLine
 10
282.2
 20
356.101
 30
0.0
 11
285.099
 21
356.101
 31
0.0
  0
LINE
  5
3DF
330
70
100
AcDbEntity
  8
팀플 평면 최종 v6_0
100
AcDbLine
 10
285.17
 20
320.129
 30
0.0
 11
285.2
 21
320.1830000000001
 31
0.0
  0
LINE
  5
3E0
330
70
100
AcDbEntity
  8
팀플 평면 최종 v6_0
100
AcDbLine
 10
285.099
 20
332.1
 30
0.0
 11
285.1160000000001
 21
332.1
 31
0.0
  0
LINE
  5
3E1
330
70
100
AcDbEntity
  8
팀플 평면 최종 v6_0
100
AcDbLine
 10
282.2
 20
368.1090000000001
 30
0.0
 11
282.185
 21
368.141
 31
0.0
  0
LINE
  5
3E2
330
70
100
AcDbEntity
  8
팀플 평면 최종 v6_0
100
AcDbLine
 10
285.17
 20
338.2709999999999
 30
0.0
 11
285.116
 21
338.3000000000001
 31
0.0
  0
LINE
  5
3E3
330
70
100
AcDbEntity
  8
팀플 평면 최종 v6_0
100
AcDbLine
 10
285.2
 20
350.217
 30
0.0
 11
285.17
 21
350.2709999999999
 31
0.0
  0
LINE
  5
3E4
330
70
100
AcDbEntity
  8
팀플 평면 최종 v6_0
100
AcDbLine
 10
282.2
 20
368.099
 30
0.0
 11
285.099
 21
368.099
 31
0.0
  0
LINE
  5
3E5
330
70
100
AcDbEntity
  8
팀플 평면 최종 v6_0
100
AcDbLine
 10
285.116
 20
368.099
 30
0.0
 11
285.17
 21
368.131
 31
0.0
  0
LINE
  5
3E6
330
70
100
AcDbEntity
  8
팀플 평면 최종 v6_0
100
AcDbLine
 10
282.157
 20
326.286
 30
0.0
 11
282.162
 21
326.2630000000001
 31
0.0
  0
LINE
  5
3E7
330
70
100
AcDbEntity
  8
팀플 평면 최종 v6_0
100
AcDbLine
 10
282.2
 20
314.29
 30
0.0
 11
282.2
 21
314.3
 31
0.0
  0
LINE
  5
3E8
330
70
100
AcDbEntity
  8
팀플 평면 최종 v6_0
100
AcDbLine
 10
285.2
 20
314.217
 30
0.0
 11
285.17
 21
314.271
 31
0.0
  0
LINE
  5
3E9
330
70
100
AcDbEntity
  8
팀플 평면 최종 v6_0
100
AcDbLine
 10
282.157
 20
344.115
 30
0.0
 11
282.1890000000001
 21
344.1
 31
0.0
  0
LINE
  5
3EA
330
70
100
AcDbEntity
  8
팀플 평면 최종 v6_0
100
AcDbLine
 10
282.2
 20
344.111
 30
0.0
 11
282.185
 21
344.143
 31
0.0
  0
LINE
  5
3EB
330
70
100
AcDbEntity
  8
팀플 평면 최종 v6_0
100
AcDbLine
 10
282.185
 20
368.141
 30
0.0
 11
282.162
 21
368.1380000000001
 31
0.0
  0
LINE
  5
3EC
330
70
100
AcDbEntity
  8
팀플 평면 최종 v6_0
100
AcDbLine
 10
285.116
 20
362.2990000000001
 30
0.0
 11
285.099
 21
362.2990000000001
 31
0.0
  0
LINE
  5
3ED
330
70
100
AcDbEntity
  8
팀플 평면 최종 v6_0
100
AcDbLine
 10
282.185
 20
362.26
 30
0.0
 11
282.2
 21
362.289
 31
0.0
  0
LINE
  5
3EE
330
70
100
AcDbEntity
  8
팀플 평면 최종 v6_0
100
AcDbLine
 10
285.2
 20
356.2
 30
0.0
 11
285.2
 21
362.2
 31
0.0
  0
LINE
  5
3EF
330
70
100
AcDbEntity
  8
팀플 평면 최종 v6_0
100
AcDbLine
 10
282.162
 20
374.262
 30
0.0
 11
282.185
 21
374.258
 31
0.0
  0
LINE
  5
3F0
330
70
100
AcDbEntity
  8
팀플 평면 최종 v6_0
100
AcDbLine
 10
282.2
 20
350.3
 30
0.0
 11
282.1890000000001
 21
350.3
 31
0.0
  0
LINE
  5
3F1
330
70
100
AcDbEntity
  8
팀플 평면 최종 v6_0
100
AcDbLine
 10
282.1890000000001
 20
374.301
 30
0.0
 11
282.157
 21
374.287
 31
0.0
  0
LINE
  5
3F2
330
70
100
AcDbEntity
  8
팀플 평면 최종 v6_0
100
AcDbLine
 10
285.17
 20
326.271
 30
0.0
 11
285.116
 21
326.3
 31
0.0
  0
LINE
  5
3F3
330
70
100
AcDbEntity
  8
팀플 평면 최종 v6_0
100
AcDbLine
 10
285.17
 20
356.129
 30
0.0
 11
285.2
 21
356.1819999999999
 31
0.0
  0
LINE
  5
3F4
330
70
100
AcDbEntity
  8
팀플 평면 최종 v6_0
100
AcDbLine
 10
285.2
 20
368.201
 30
0.0
 11
285.2
 21
374.198
 31
0.0
  0
LINE
  5
3F5
330
70
100
AcDbEntity
  8
팀플 평면 최종 v6_0
100
AcDbLine
 10
282.157
 20
350.286
 30
0.0
 11
282.162
 21
350.2630000000001
 31
0.0
  0
LINE
  5
3F6
330
70
100
AcDbEntity
  8
팀플 평면 최종 v6_0
100
AcDbLine
 10
282.157
 20
338.286
 30
0.0
 11
282.162
 21
338.263
 31
0.0
  0
LINE
  5
3F7
330
70
100
AcDbEntity
  8
팀플 평면 최종 v6_0
100
AcDbLine
 10
285.2
 20
326.217
 30
0.0
 11
285.17
 21
326.271
 31
0.0
  0
LINE
  5
3F8
330
70
100
AcDbEntity
  8
팀플 평면 최종 v6_0
100
AcDbLine
 10
282.2
 20
326.3
 30
0.0
 11
282.1890000000001
 21
326.3
 31
0.0
  0
LINE
  5
3F9
330
70
100
AcDbEntity
  8
팀플 평면 최종 v6_0
100
AcDbLine
 10
285.099
 20
344.1
 30
0.0
 11
285.1160000000001
 21
344.1
 31
0.0
  0
LINE
  5
3FA
330
70
100
AcDbEntity
  8
팀플 평면 최종 v6_0
100
AcDbLine
 10
285.17
 20
362.271
 30
0.0
 11
285.116
 21
362.2990000000001
 31
0.0
  0
LINE
  5
3FB
330
70
100
AcDbEntity
  8
팀플 평면 최종 v6_0
100
AcDbLine
 10
282.2
 20
356.112
 30
0.0
 11
282.185
 21
356.1430000000001
 31
0.0
  0
LINE
  5
3FC
330
70
100
AcDbEntity
  8
팀플 평면 최종 v6_0
100
AcDbLine
 10
285.2
 20
320.1830000000001
 30
0.0
 11
285.2
 21
320.199
 31
0.0
  0
LINE
  5
3FD
330
70
100
AcDbEntity
  8
팀플 평면 최종 v6_0
100
AcDbLine
 10
282.2
 20
344.1
 30
0.0
 11
285.099
 21
344.1
 31
0.0
  0
LINE
  5
3FE
330
70
100
AcDbEntity
  8
팀플 평면 최종 v6_0
100
AcDbLine
 10
282.162
 20
326.2630000000001
 30
0.0
 11
282.185
 21
326.259
 31
0.0
  0
LINE
  5
3FF
330
70
100
AcDbEntity
  8
팀플 평면 최종 v6_0
100
AcDbLine
 10
282.185
 20
332.143
 30
0.0
 11
282.162
 21
332.1369999999999
 31
0.0
  0
LINE
  5
400
330
70
100
AcDbEntity
  8
팀플 평면 최종 v6_0
100
AcDbLine
 10
285.2
 20
374.198
 30
0.0
 11
285.2
 21
374.2160000000001
 31
0.0
  0
LINE
  5
401
330
70
100
AcDbEntity
  8
팀플 평면 최종 v6_0
100
AcDbLine
 10
282.157
 20
362.285
 30
0.0
 11
282.162
 21
362.264
 31
0.0
  0
LINE
  5
402
330
70
100
AcDbEntity
  8
팀플 평면 최종 v6_0
100
AcDbLine
 10
282.2
 20
362.2990000000001
 30
0.0
 11
282.1890000000001
 21
362.2990000000001
 31
0.0
  0
LINE
  5
403
330
70
100
AcDbEntity
  8
팀플 평면 최종 v6_0
100
AcDbLine
 10
282.1890000000001
 20
356.101
 30
0.0
 11
282.2
 21
356.101
 31
0.0
  0
LINE
  5
404
330
70
100
AcDbEntity
  8
팀플 평면 최종 v6_0
100
AcDbLine
 10
285.116
 20
314.3
 30
0.0
 11
285.099
 21
314.3
 31
0.0
  0
LINE
  5
405
330
70
100
AcDbEntity
  8
팀플 평면 최종 v6_0
100
AcDbLine
 10
285.099
 20
338.3000000000001
 30
0.0
 11
282.2
 21
338.3000000000001
 31
0.0
  0
LINE
  5
406
330
70
100
AcDbEntity
  8
팀플 평면 최종 v6_0
100
AcDbLine
 10
282.162
 20
362.264
 30
0.0
 11
282.185
 21
362.26
 31
0.0
  0
LINE
  5
407
330
70
100
AcDbEntity
  8
팀플 평면 최종 v6_0
100
AcDbLine
 10
285.17
 20
374.273
 30
0.0
 11
285.116
 21
374.301
 31
0.0
  0
LINE
  5
408
330
70
100
AcDbEntity
  8
팀플 평면 최종 v6_0
100
AcDbLine
 10
282.2
 20
326.3
 30
0.0
 11
282.2
 21
332.1
 31
0.0
  0
LINE
  5
409
330
70
100
AcDbEntity
  8
팀플 평면 최종 v6_0
100
AcDbLine
 10
282.2
 20
332.1
 30
0.0
 11
282.2
 21
332.111
 31
0.0
  0
LINE
  5
40A
330
70
100
AcDbEntity
  8
팀플 평면 최종 v6_0
100
AcDbLine
 10
282.2
 20
362.289
 30
0.0
 11
282.2
 21
362.2990000000001
 31
0.0
  0
LINE
  5
40B
330
70
100
AcDbEntity
  8
팀플 평면 최종 v6_0
100
AcDbLine
 10
285.099
 20
326.3
 30
0.0
 11
282.2
 21
326.3
 31
0.0
  0
LINE
  5
40C
330
70
100
AcDbEntity
  8
팀플 평면 최종 v6_0
100
AcDbLine
 10
285.2
 20
374.2160000000001
 30
0.0
 11
285.17
 21
374.273
 31
0.0
  0
LINE
  5
40D
330
70
100
AcDbEntity
  8
팀플 평면 최종 v6_0
100
AcDbLine
 10
282.1890000000001
 20
362.2990000000001
 30
0.0
 11
282.157
 21
362.2850000000001
 31
0.0
  0
LINE
  5
40E
330
70
100
AcDbEntity
  8
팀플 평면 최종 v6_0
100
AcDbLine
 10
285.17
 20
350.2709999999999
 30
0.0
 11
285.116
 21
350.3
 31
0.0
  0
LINE
  5
40F
330
70
100
AcDbEntity
  8
팀플 평면 최종 v6_0
100
AcDbLine
 10
285.099
 20
380.1
 30
0.0
 11
285.1160000000001
 21
380.1
 31
0.0
  0
LINE
  5
410
330
70
100
AcDbEntity
  8
팀플 평면 최종 v6_0
100
AcDbLine
 10
285.17
 20
386.2700000000001
 30
0.0
 11
285.116
 21
386.2990000000001
 31
0.0
  0
LINE
  5
411
330
70
100
AcDbEntity
  8
팀플 평면 최종 v6_0
100
AcDbLine
 10
285.17
 20
404.1319999999999
 30
0.0
 11
285.2
 21
404.185
 31
0.0
  0
LINE
  5
412
330
70
100
AcDbEntity
  8
팀플 평면 최종 v6_0
100
AcDbLine
 10
282.1890000000001
 20
404.1
 30
0.0
 11
282.2
 21
404.1
 31
0.0
  0
LINE
  5
413
330
70
100
AcDbEntity
  8
팀플 평면 최종 v6_0
100
AcDbLine
 10
282.1890000000001
 20
350.3
 30
0.0
 11
282.157
 21
350.286
 31
0.0
  0
LINE
  5
414
330
70
100
AcDbEntity
  8
팀플 평면 최종 v6_0
100
AcDbLine
 10
282.2
 20
356.101
 30
0.0
 11
282.2
 21
356.112
 31
0.0
  0
LINE
  5
415
330
70
100
AcDbEntity
  8
팀플 평면 최종 v6_0
100
AcDbLine
 10
282.2
 20
326.291
 30
0.0
 11
282.2
 21
326.3
 31
0.0
  0
LINE
  5
416
330
70
100
AcDbEntity
  8
팀플 평면 최종 v6_0
100
AcDbLine
 10
282.2
 20
374.301
 30
0.0
 11
282.1890000000001
 21
374.301
 31
0.0
  0
LINE
  5
417
330
70
100
AcDbEntity
  8
팀플 평면 최종 v6_0
100
AcDbLine
 10
282.185
 20
350.259
 30
0.0
 11
282.2
 21
350.2900000000001
 31
0.0
  0
LINE
  5
418
330
70
100
AcDbEntity
  8
팀플 평면 최종 v6_0
100
AcDbLine
 10
285.17
 20
368.131
 30
0.0
 11
285.2
 21
368.184
 31
0.0
  0
LINE
  5
419
330
70
100
AcDbEntity
  8
팀플 평면 최종 v6_0
100
AcDbLine
 10
282.2
 20
362.2990000000001
 30
0.0
 11
282.2
 21
368.099
 31
0.0
  0
LINE
  5
41A
330
70
100
AcDbEntity
  8
팀플 평면 최종 v6_0
100
AcDbLine
 10
285.17
 20
344.129
 30
0.0
 11
285.2
 21
344.1830000000001
 31
0.0
  0
LINE
  5
41B
330
70
100
AcDbEntity
  8
팀플 평면 최종 v6_0
100
AcDbLine
 10
285.116
 20
344.1
 30
0.0
 11
285.17
 21
344.129
 31
0.0
  0
LINE
  5
41C
330
70
100
AcDbEntity
  8
팀플 평면 최종 v6_0
100
AcDbLine
 10
285.099
 20
386.2990000000001
 30
0.0
 11
282.2
 21
386.2990000000001
 31
0.0
  0
LINE
  5
41D
330
70
100
AcDbEntity
  8
팀플 평면 최종 v6_0
100
AcDbLine
 10
285.2
 20
404.185
 30
0.0
 11
285.2
 21
404.2019999999999
 31
0.0
  0
LINE
  5
41E
330
70
100
AcDbEntity
  8
팀플 평면 최종 v6_0
100
AcDbLine
 10
282.1890000000001
 20
344.1
 30
0.0
 11
282.2
 21
344.1
 31
0.0
  0
LINE
  5
41F
330
70
100
AcDbEntity
  8
팀플 평면 최종 v6_0
100
AcDbLine
 10
285.17
 20
410.2699999999999
 30
0.0
 11
285.116
 21
410.298
 31
0.0
  0
LINE
  5
420
330
70
100
AcDbEntity
  8
팀플 평면 최종 v6_0
100
AcDbLine
 10
282.1890000000001
 20
386.2990000000001
 30
0.0
 11
282.157
 21
386.2850000000001
 31
0.0
  0
LINE
  5
421
330
70
100
AcDbEntity
  8
팀플 평면 최종 v6_0
100
AcDbLine
 10
285.2
 20
344.2000000000001
 30
0.0
 11
285.2
 21
350.199
 31
0.0
  0
LINE
  5
422
330
70
100
AcDbEntity
  8
팀플 평면 최종 v6_0
100
AcDbLine
 10
282.1890000000001
 20
392.098
 30
0.0
 11
282.2
 21
392.098
 31
0.0
  0
LINE
  5
423
330
70
100
AcDbEntity
  8
팀플 평면 최종 v6_0
100
AcDbLine
 10
282.2
 20
386.2990000000001
 30
0.0
 11
282.2
 21
392.0980000000001
 31
0.0
  0
LINE
  5
424
330
70
100
AcDbEntity
  8
팀플 평면 최종 v6_0
100
AcDbLine
 10
282.2
 20
392.1130000000001
 30
0.0
 11
282.185
 21
392.144
 31
0.0
  0
LINE
  5
425
330
70
100
AcDbEntity
  8
팀플 평면 최종 v6_0
100
AcDbLine
 10
285.099
 20
362.2990000000001
 30
0.0
 11
282.2
 21
362.2990000000001
 31
0.0
  0
LINE
  5
426
330
70
100
AcDbEntity
  8
팀플 평면 최종 v6_0
100
AcDbLine
 10
285.116
 20
392.098
 30
0.0
 11
285.17
 21
392.13
 31
0.0
  0
LINE
  5
427
330
70
100
AcDbEntity
  8
팀플 평면 최종 v6_0
100
AcDbLine
 10
285.099
 20
374.301
 30
0.0
 11
282.2
 21
374.301
 31
0.0
  0
LINE
  5
428
330
70
100
AcDbEntity
  8
팀플 평면 최종 v6_0
100
AcDbLine
 10
282.157
 20
368.117
 30
0.0
 11
282.1890000000001
 21
368.099
 31
0.0
  0
LINE
  5
429
330
70
100
AcDbEntity
  8
팀플 평면 최종 v6_0
100
AcDbLine
 10
285.2
 20
356.1819999999999
 30
0.0
 11
285.2
 21
356.2
 31
0.0
  0
LINE
  5
42A
330
70
100
AcDbEntity
  8
팀플 평면 최종 v6_0
100
AcDbLine
 10
285.2
 20
410.199
 30
0.0
 11
285.2
 21
410.217
 31
0.0
  0
LINE
  5
42B
330
70
100
AcDbEntity
  8
팀플 평면 최종 v6_0
100
AcDbLine
 10
285.2
 20
344.1830000000001
 30
0.0
 11
285.2
 21
344.2000000000001
 31
0.0
  0
LINE
  5
42C
330
70
100
AcDbEntity
  8
팀플 평면 최종 v6_0
100
AcDbLine
 10
282.2
 20
404.1
 30
0.0
 11
282.2
 21
404.11
 31
0.0
  0
LINE
  5
42D
330
70
100
AcDbEntity
  8
팀플 평면 최종 v6_0
100
AcDbLine
 10
282.2
 20
428.099
 30
0.0
 11
282.2
 21
428.1100000000001
 31
0.0
  0
LINE
  5
42E
330
70
100
AcDbEntity
  8
팀플 평면 최종 v6_0
100
AcDbLine
 10
282.162
 20
428.1380000000001
 30
0.0
 11
282.157
 21
428.113
 31
0.0
  0
LINE
  5
42F
330
70
100
AcDbEntity
  8
팀플 평면 최종 v6_0
100
AcDbLine
 10
285.2
 20
362.218
 30
0.0
 11
285.17
 21
362.271
 31
0.0
  0
LINE
  5
430
330
70
100
AcDbEntity
  8
팀플 평면 최종 v6_0
100
AcDbLine
 10
285.099
 20
404.1
 30
0.0
 11
285.1160000000001
 21
404.1
 31
0.0
  0
LINE
  5
431
330
70
100
AcDbEntity
  8
팀플 평면 최종 v6_0
100
AcDbLine
 10
285.099
 20
350.3
 30
0.0
 11
282.2
 21
350.3
 31
0.0
  0
LINE
  5
432
330
70
100
AcDbEntity
  8
팀플 평면 최종 v6_0
100
AcDbLine
 10
282.2
 20
392.098
 30
0.0
 11
282.2
 21
392.1130000000001
 31
0.0
  0
LINE
  5
433
330
70
100
AcDbEntity
  8
팀플 평면 최종 v6_0
100
AcDbLine
 10
282.162
 20
398.261
 30
0.0
 11
282.185
 21
398.2580000000001
 31
0.0
  0
LINE
  5
434
330
70
100
AcDbEntity
  8
팀플 평면 최종 v6_0
100
AcDbLine
 10
282.185
 20
380.143
 30
0.0
 11
282.162
 21
380.136
 31
0.0
  0
LINE
  5
435
330
70
100
AcDbEntity
  8
팀플 평면 최종 v6_0
100
AcDbLine
 10
282.185
 20
404.142
 30
0.0
 11
282.162
 21
404.1389999999999
 31
0.0
  0
LINE
  5
436
330
70
100
AcDbEntity
  8
팀플 평면 최종 v6_0
100
AcDbLine
 10
282.162
 20
380.136
 30
0.0
 11
282.157
 21
380.1150000000001
 31
0.0
  0
LINE
  5
437
330
70
100
AcDbEntity
  8
팀플 평면 최종 v6_0
100
AcDbLine
 10
282.2
 20
350.3
 30
0.0
 11
282.2
 21
356.101
 31
0.0
  0
LINE
  5
438
330
70
100
AcDbEntity
  8
팀플 평면 최종 v6_0
100
AcDbLine
 10
282.157
 20
356.115
 30
0.0
 11
282.1890000000001
 21
356.101
 31
0.0
  0
LINE
  5
439
330
70
100
AcDbEntity
  8
팀플 평면 최종 v6_0
100
AcDbLine
 10
282.2
 20
374.29
 30
0.0
 11
282.2
 21
374.301
 31
0.0
  0
LINE
  5
43A
330
70
100
AcDbEntity
  8
팀플 평면 최종 v6_0
100
AcDbLine
 10
282.1890000000001
 20
368.099
 30
0.0
 11
282.2
 21
368.099
 31
0.0
  0
LINE
  5
43B
330
70
100
AcDbEntity
  8
팀플 평면 최종 v6_0
100
AcDbLine
 10
285.2
 20
362.2
 30
0.0
 11
285.2
 21
362.218
 31
0.0
  0
LINE
  5
43C
330
70
100
AcDbEntity
  8
팀플 평면 최종 v6_0
100
AcDbLine
 10
285.2
 20
404.2019999999999
 30
0.0
 11
285.2
 21
410.199
 31
0.0
  0
LINE
  5
43D
330
70
100
AcDbEntity
  8
팀플 평면 최종 v6_0
100
AcDbLine
 10
282.1890000000001
 20
398.3000000000001
 30
0.0
 11
282.157
 21
398.286
 31
0.0
  0
LINE
  5
43E
330
70
100
AcDbEntity
  8
팀플 평면 최종 v6_0
100
AcDbLine
 10
285.2
 20
410.217
 30
0.0
 11
285.17
 21
410.27
 31
0.0
  0
LINE
  5
43F
330
70
100
AcDbEntity
  8
팀플 평면 최종 v6_0
100
AcDbLine
 10
285.17
 20
380.129
 30
0.0
 11
285.2
 21
380.182
 31
0.0
  0
LINE
  5
440
330
70
100
AcDbEntity
  8
팀플 평면 최종 v6_0
100
AcDbLine
 10
285.116
 20
404.1
 30
0.0
 11
285.17
 21
404.1319999999999
 31
0.0
  0
LINE
  5
441
330
70
100
AcDbEntity
  8
팀플 평면 최종 v6_0
100
AcDbLine
 10
282.162
 20
356.136
 30
0.0
 11
282.157
 21
356.115
 31
0.0
  0
LINE
  5
442
330
70
100
AcDbEntity
  8
팀플 평면 최종 v6_0
100
AcDbLine
 10
282.157
 20
374.287
 30
0.0
 11
282.162
 21
374.262
 31
0.0
  0
LINE
  5
443
330
70
100
AcDbEntity
  8
팀플 평면 최종 v6_0
100
AcDbLine
 10
285.2
 20
398.219
 30
0.0
 11
285.17
 21
398.272
 31
0.0
  0
LINE
  5
444
330
70
100
AcDbEntity
  8
팀플 평면 최종 v6_0
100
AcDbLine
 10
282.162
 20
404.139
 30
0.0
 11
282.157
 21
404.1140000000001
 31
0.0
  0
LINE
  5
445
330
70
100
AcDbEntity
  8
팀플 평면 최종 v6_0
100
AcDbLine
 10
285.2
 20
380.182
 30
0.0
 11
285.2
 21
380.199
 31
0.0
  0
LINE
  5
446
330
70
100
AcDbEntity
  8
팀플 평면 최종 v6_0
100
AcDbLine
 10
285.116
 20
428.099
 30
0.0
 11
285.17
 21
428.1309999999999
 31
0.0
  0
LINE
  5
447
330
70
100
AcDbEntity
  8
팀플 평면 최종 v6_0
100
AcDbLine
 10
282.185
 20
374.258
 30
0.0
 11
282.2
 21
374.29
 31
0.0
  0
LINE
  5
448
330
70
100
AcDbEntity
  8
팀플 평면 최종 v6_0
100
AcDbLine
 10
282.2
 20
428.1100000000001
 30
0.0
 11
282.185
 21
428.1419999999999
 31
0.0
  0
LINE
  5
449
330
70
100
AcDbEntity
  8
팀플 평면 최종 v6_0
100
AcDbLine
 10
282.185
 20
386.26
 30
0.0
 11
282.2
 21
386.292
 31
0.0
  0
LINE
  5
44A
330
70
100
AcDbEntity
  8
팀플 평면 최종 v6_0
100
AcDbLine
 10
285.116
 20
374.301
 30
0.0
 11
285.099
 21
374.301
 31
0.0
  0
LINE
  5
44B
330
70
100
AcDbEntity
  8
팀플 평면 최종 v6_0
100
AcDbLine
 10
285.2
 20
380.199
 30
0.0
 11
285.2
 21
386.2
 31
0.0
  0
LINE
  5
44C
330
70
100
AcDbEntity
  8
팀플 평면 최종 v6_0
100
AcDbLine
 10
282.185
 20
356.1430000000001
 30
0.0
 11
282.162
 21
356.136
 31
0.0
  0
LINE
  5
44D
330
70
100
AcDbEntity
  8
팀플 평면 최종 v6_0
100
AcDbLine
 10
282.2
 20
386.2990000000001
 30
0.0
 11
282.1890000000001
 21
386.2990000000001
 31
0.0
  0
LINE
  5
44E
330
70
100
AcDbEntity
  8
팀플 평면 최종 v6_0
100
AcDbLine
 10
282.157
 20
428.113
 30
0.0
 11
282.1890000000001
 21
428.099
 31
0.0
  0
LINE
  5
44F
330
70
100
AcDbEntity
  8
팀플 평면 최종 v6_0
100
AcDbLine
 10
282.2
 20
380.1
 30
0.0
 11
285.099
 21
380.1
 31
0.0
  0
LINE
  5
450
330
70
100
AcDbEntity
  8
팀플 평면 최종 v6_0
100
AcDbLine
 10
282.162
 20
392.1369999999999
 30
0.0
 11
282.157
 21
392.116
 31
0.0
  0
LINE
  5
451
330
70
100
AcDbEntity
  8
팀플 평면 최종 v6_0
100
AcDbLine
 10
282.162
 20
386.2630000000001
 30
0.0
 11
282.185
 21
386.26
 31
0.0
  0
LINE
  5
452
330
70
100
AcDbEntity
  8
팀플 평면 최종 v6_0
100
AcDbLine
 10
285.116
 20
356.101
 30
0.0
 11
285.17
 21
356.129
 31
0.0
  0
LINE
  5
453
330
70
100
AcDbEntity
  8
팀플 평면 최종 v6_0
100
AcDbLine
 10
285.099
 20
356.101
 30
0.0
 11
285.1160000000001
 21
356.101
 31
0.0
  0
LINE
  5
454
330
70
100
AcDbEntity
  8
팀플 평면 최종 v6_0
100
AcDbLine
 10
285.2
 20
386.2180000000001
 30
0.0
 11
285.17
 21
386.2700000000001
 31
0.0
  0
LINE
  5
455
330
70
100
AcDbEntity
  8
팀플 평면 최종 v6_0
100
AcDbLine
 10
285.2
 20
398.201
 30
0.0
 11
285.2
 21
398.219
 31
0.0
  0
LINE
  5
456
330
70
100
AcDbEntity
  8
팀플 평면 최종 v6_0
100
AcDbLine
 10
285.2
 20
392.183
 30
0.0
 11
285.2
 21
392.201
 31
0.0
  0
LINE
  5
457
330
70
100
AcDbEntity
  8
팀플 평면 최종 v6_0
100
AcDbLine
 10
285.116
 20
350.3
 30
0.0
 11
285.099
 21
350.3
 31
0.0
  0
LINE
  5
458
330
70
100
AcDbEntity
  8
팀플 평면 최종 v6_0
100
AcDbLine
 10
285.099
 20
392.098
 30
0.0
 11
285.1160000000001
 21
392.098
 31
0.0
  0
LINE
  5
459
330
70
100
AcDbEntity
  8
팀플 평면 최종 v6_0
100
AcDbLine
 10
282.2
 20
410.2909999999999
 30
0.0
 11
282.2
 21
410.298
 31
0.0
  0
LINE
  5
45A
330
70
100
AcDbEntity
  8
팀플 평면 최종 v6_0
100
AcDbLine
 10
282.2
 20
404.1
 30
0.0
 11
285.099
 21
404.1
 31
0.0
  0
LINE
  5
45B
330
70
100
AcDbEntity
  8
팀플 평면 최종 v6_0
100
AcDbLine
 10
285.116
 20
434.301
 30
0.0
 11
285.099
 21
434.301
 31
0.0
  0
LINE
  5
45C
330
70
100
AcDbEntity
  8
팀플 평면 최종 v6_0
100
AcDbLine
 10
282.2
 20
398.2900000000001
 30
0.0
 11
282.2
 21
398.3000000000001
 31
0.0
  0
LINE
  5
45D
330
70
100
AcDbEntity
  8
팀플 평면 최종 v6_0
100
AcDbLine
 10
285.116
 20
398.3000000000001
 30
0.0
 11
285.099
 21
398.3000000000001
 31
0.0
  0
LINE
  5
45E
330
70
100
AcDbEntity
  8
팀플 평면 최종 v6_0
100
AcDbLine
 10
282.157
 20
380.1150000000001
 30
0.0
 11
282.1890000000001
 21
380.1000000000001
 31
0.0
  0
LINE
  5
45F
330
70
100
AcDbEntity
  8
팀플 평면 최종 v6_0
100
AcDbLine
 10
282.157
 20
392.116
 30
0.0
 11
282.1890000000001
 21
392.098
 31
0.0
  0
LINE
  5
460
330
70
100
AcDbEntity
  8
팀플 평면 최종 v6_0
100
AcDbLine
 10
285.2
 20
416.2
 30
0.0
 11
285.2
 21
422.201
 31
0.0
  0
LINE
  5
461
330
70
100
AcDbEntity
  8
팀플 평면 최종 v6_0
100
AcDbLine
 10
282.2
 20
398.3000000000001
 30
0.0
 11
282.1890000000001
 21
398.3000000000001
 31
0.0
  0
LINE
  5
462
330
70
100
AcDbEntity
  8
팀플 평면 최종 v6_0
100
AcDbLine
 10
282.2
 20
422.3
 30
0.0
 11
282.1890000000001
 21
422.3
 31
0.0
  0
LINE
  5
463
330
70
100
AcDbEntity
  8
팀플 평면 최종 v6_0
100
AcDbLine
 10
282.1890000000001
 20
410.298
 30
0.0
 11
282.157
 21
410.2879999999999
 31
0.0
  0
LINE
  5
464
330
70
100
AcDbEntity
  8
팀플 평면 최종 v6_0
100
AcDbLine
 10
282.185
 20
398.2580000000001
 30
0.0
 11
282.2
 21
398.2900000000001
 31
0.0
  0
LINE
  5
465
330
70
100
AcDbEntity
  8
팀플 평면 최종 v6_0
100
AcDbLine
 10
282.157
 20
386.285
 30
0.0
 11
282.162
 21
386.2630000000001
 31
0.0
  0
LINE
  5
466
330
70
100
AcDbEntity
  8
팀플 평면 최종 v6_0
100
AcDbLine
 10
282.2
 20
428.099
 30
0.0
 11
285.099
 21
428.099
 31
0.0
  0
LINE
  5
467
330
70
100
AcDbEntity
  8
팀플 평면 최종 v6_0
100
AcDbLine
 10
285.17
 20
434.269
 30
0.0
 11
285.116
 21
434.3009999999999
 31
0.0
  0
LINE
  5
468
330
70
100
AcDbEntity
  8
팀플 평면 최종 v6_0
100
AcDbLine
 10
282.157
 20
398.286
 30
0.0
 11
282.162
 21
398.261
 31
0.0
  0
LINE
  5
469
330
70
100
AcDbEntity
  8
팀플 평면 최종 v6_0
100
AcDbLine
 10
285.099
 20
398.3000000000001
 30
0.0
 11
282.2
 21
398.3000000000001
 31
0.0
  0
LINE
  5
46A
330
70
100
AcDbEntity
  8
팀플 평면 최종 v6_0
100
AcDbLine
 10
282.2
 20
404.11
 30
0.0
 11
282.185
 21
404.142
 31
0.0
  0
LINE
  5
46B
330
70
100
AcDbEntity
  8
팀플 평면 최종 v6_0
100
AcDbLine
 10
285.17
 20
392.13
 30
0.0
 11
285.2
 21
392.183
 31
0.0
  0
LINE
  5
46C
330
70
100
AcDbEntity
  8
팀플 평면 최종 v6_0
100
AcDbLine
 10
282.2
 20
410.298
 30
0.0
 11
282.1890000000001
 21
410.298
 31
0.0
  0
LINE
  5
46D
330
70
100
AcDbEntity
  8
팀플 평면 최종 v6_0
100
AcDbLine
 10
285.099
 20
416.101
 30
0.0
 11
285.1160000000001
 21
416.101
 31
0.0
  0
LINE
  5
46E
330
70
100
AcDbEntity
  8
팀플 평면 최종 v6_0
100
AcDbLine
 10
285.2
 20
392.201
 30
0.0
 11
285.2
 21
398.201
 31
0.0
  0
LINE
  5
46F
330
70
100
AcDbEntity
  8
팀플 평면 최종 v6_0
100
AcDbLine
 10
282.2
 20
410.298
 30
0.0
 11
282.2
 21
416.101
 31
0.0
  0
LINE
  5
470
330
70
100
AcDbEntity
  8
팀플 평면 최종 v6_0
100
AcDbLine
 10
285.116
 20
386.2990000000001
 30
0.0
 11
285.099
 21
386.2990000000001
 31
0.0
  0
LINE
  5
471
330
70
100
AcDbEntity
  8
팀플 평면 최종 v6_0
100
AcDbLine
 10
282.162
 20
416.14
 30
0.0
 11
282.157
 21
416.116
 31
0.0
  0
LINE
  5
472
330
70
100
AcDbEntity
  8
팀플 평면 최종 v6_0
100
AcDbLine
 10
285.099
 20
422.3
 30
0.0
 11
282.2
 21
422.3
 31
0.0
  0
LINE
  5
473
330
70
100
AcDbEntity
  8
팀플 평면 최종 v6_0
100
AcDbLine
 10
282.2
 20
374.301
 30
0.0
 11
282.2
 21
380.1000000000001
 31
0.0
  0
LINE
  5
474
330
70
100
AcDbEntity
  8
팀플 평면 최종 v6_0
100
AcDbLine
 10
285.2
 20
428.184
 30
0.0
 11
285.2
 21
428.202
 31
0.0
  0
LINE
  5
475
330
70
100
AcDbEntity
  8
팀플 평면 최종 v6_0
100
AcDbLine
 10
270.701
 20
442.302
 30
0.0
 11
270.701
 21
445.198
 31
0.0
  0
LINE
  5
476
330
70
100
AcDbEntity
  8
팀플 평면 최종 v6_0
100
AcDbLine
 10
282.162
 20
434.2619999999999
 30
0.0
 11
282.185
 21
434.259
 31
0.0
  0
LINE
  5
477
330
70
100
AcDbEntity
  8
팀플 평면 최종 v6_0
100
AcDbLine
 10
282.1890000000001
 20
380.1
 30
0.0
 11
282.2
 21
380.1
 31
0.0
  0
LINE
  5
478
330
70
100
AcDbEntity
  8
팀플 평면 최종 v6_0
100
AcDbLine
 10
282.2
 20
386.292
 30
0.0
 11
282.2
 21
386.2990000000001
 31
0.0
  0
LINE
  5
479
330
70
100
AcDbEntity
  8
팀플 평면 최종 v6_0
100
AcDbLine
 10
285.099
 20
410.298
 30
0.0
 11
282.2
 21
410.298
 31
0.0
  0
LINE
  5
47A
330
70
100
AcDbEntity
  8
팀플 평면 최종 v6_0
100
AcDbLine
 10
285.2
 20
422.201
 30
0.0
 11
285.2
 21
422.219
 31
0.0
  0
LINE
  5
47B
330
70
100
AcDbEntity
  8
팀플 평면 최종 v6_0
100
AcDbLine
 10
282.2
 20
434.301
 30
0.0
 11
282.1890000000001
 21
434.301
 31
0.0
  0
LINE
  5
47C
330
70
100
AcDbEntity
  8
팀플 평면 최종 v6_0
100
AcDbLine
 10
285.2
 20
434.199
 30
0.0
 11
285.2
 21
434.22
 31
0.0
  0
LINE
  5
47D
330
70
100
AcDbEntity
  8
팀플 평면 최종 v6_0
100
AcDbLine
 10
282.1890000000001
 20
422.3
 30
0.0
 11
282.157
 21
422.286
 31
0.0
  0
LINE
  5
47E
330
70
100
AcDbEntity
  8
팀플 평면 최종 v6_0
100
AcDbLine
 10
285.099
 20
428.099
 30
0.0
 11
285.1160000000001
 21
428.099
 31
0.0
  0
LINE
  5
47F
330
70
100
AcDbEntity
  8
팀플 평면 최종 v6_0
100
AcDbLine
 10
285.17
 20
428.1309999999999
 30
0.0
 11
285.2
 21
428.184
 31
0.0
  0
LINE
  5
480
330
70
100
AcDbEntity
  8
팀플 평면 최종 v6_0
100
AcDbLine
 10
282.2
 20
392.098
 30
0.0
 11
285.099
 21
392.098
 31
0.0
  0
LINE
  5
481
330
70
100
AcDbEntity
  8
팀플 평면 최종 v6_0
100
AcDbLine
 10
282.185
 20
392.1440000000001
 30
0.0
 11
282.162
 21
392.1369999999999
 31
0.0
  0
LINE
  5
482
330
70
100
AcDbEntity
  8
팀플 평면 최종 v6_0
100
AcDbLine
 10
285.2
 20
386.2
 30
0.0
 11
285.2
 21
386.2180000000001
 31
0.0
  0
LINE
  5
483
330
70
100
AcDbEntity
  8
팀플 평면 최종 v6_0
100
AcDbLine
 10
282.2
 20
398.3000000000001
 30
0.0
 11
282.2
 21
404.1
 31
0.0
  0
LINE
  5
484
330
70
100
AcDbEntity
  8
팀플 평면 최종 v6_0
100
AcDbLine
 10
285.2
 20
428.202
 30
0.0
 11
285.2
 21
434.199
 31
0.0
  0
LINE
  5
485
330
70
100
AcDbEntity
  8
팀플 평면 최종 v6_0
100
AcDbLine
 10
282.2
 20
380.1
 30
0.0
 11
282.2
 21
380.111
 31
0.0
  0
LINE
  5
486
330
70
100
AcDbEntity
  8
팀플 평면 최종 v6_0
100
AcDbLine
 10
282.2
 20
380.111
 30
0.0
 11
282.185
 21
380.143
 31
0.0
  0
LINE
  5
487
330
70
100
AcDbEntity
  8
팀플 평면 최종 v6_0
100
AcDbLine
 10
285.17
 20
398.272
 30
0.0
 11
285.116
 21
398.3000000000001
 31
0.0
  0
LINE
  5
488
330
70
100
AcDbEntity
  8
팀플 평면 최종 v6_0
100
AcDbLine
 10
282.157
 20
404.1140000000001
 30
0.0
 11
282.1890000000001
 21
404.1
 31
0.0
  0
LINE
  5
489
330
70
100
AcDbEntity
  8
팀플 평면 최종 v6_0
100
AcDbLine
 10
285.116
 20
380.1
 30
0.0
 11
285.17
 21
380.129
 31
0.0
  0
LINE
  5
48A
330
70
100
AcDbEntity
  8
팀플 평면 최종 v6_0
100
AcDbLine
 10
285.099
 20
434.301
 30
0.0
 11
282.2
 21
434.301
 31
0.0
  0
LINE
  5
48B
330
70
100
AcDbEntity
  8
팀플 평면 최종 v6_0
100
AcDbLine
 10
240.528
 20
445.273
 30
0.0
 11
240.4990000000001
 21
445.22
 31
0.0
  0
LINE
  5
48C
330
70
100
AcDbEntity
  8
팀플 평면 최종 v6_0
100
AcDbLine
 10
270.67
 20
445.273
 30
0.0
 11
270.617
 21
445.301
 31
0.0
  0
LINE
  5
48D
330
70
100
AcDbEntity
  8
팀플 평면 최종 v6_0
100
AcDbLine
 10
282.17
 20
442.27
 30
0.0
 11
282.116
 21
442.302
 31
0.0
  0
LINE
  5
48E
330
70
100
AcDbEntity
  8
팀플 평면 최종 v6_0
100
AcDbLine
 10
282.157
 20
434.2869999999999
 30
0.0
 11
282.162
 21
434.2619999999999
 31
0.0
  0
LINE
  5
48F
330
70
100
AcDbEntity
  8
팀플 평면 최종 v6_0
100
AcDbLine
 10
282.2
 20
422.3
 30
0.0
 11
282.2
 21
428.099
 31
0.0
  0
LINE
  5
490
330
70
100
AcDbEntity
  8
팀플 평면 최종 v6_0
100
AcDbLine
 10
282.2
 20
434.291
 30
0.0
 11
282.2
 21
434.301
 31
0.0
  0
LINE
  5
491
330
70
100
AcDbEntity
  8
팀플 평면 최종 v6_0
100
AcDbLine
 10
282.099
 20
442.302
 30
0.0
 11
270.701
 21
442.302
 31
0.0
  0
LINE
  5
492
330
70
100
AcDbEntity
  8
팀플 평면 최종 v6_0
100
AcDbLine
 10
264.51
 20
442.302
 30
0.0
 11
264.501
 21
442.302
 31
0.0
  0
LINE
  5
493
330
70
100
AcDbEntity
  8
팀플 평면 최종 v6_0
100
AcDbLine
 10
285.116
 20
422.3
 30
0.0
 11
285.099
 21
422.3
 31
0.0
  0
LINE
  5
494
330
70
100
AcDbEntity
  8
팀플 평면 최종 v6_0
100
AcDbLine
 10
285.2
 20
434.22
 30
0.0
 11
285.17
 21
434.269
 31
0.0
  0
LINE
  5
495
330
70
100
AcDbEntity
  8
팀플 평면 최종 v6_0
100
AcDbLine
 10
240.4990000000001
 20
445.22
 30
0.0
 11
240.4990000000001
 21
445.1979999999999
 31
0.0
  0
LINE
  5
496
330
70
100
AcDbEntity
  8
팀플 평면 최종 v6_0
100
AcDbLine
 10
282.1890000000001
 20
428.099
 30
0.0
 11
282.2
 21
428.099
 31
0.0
  0
LINE
  5
497
330
70
100
AcDbEntity
  8
팀플 평면 최종 v6_0
100
AcDbLine
 10
282.116
 20
442.302
 30
0.0
 11
282.099
 21
442.302
 31
0.0
  0
LINE
  5
498
330
70
100
AcDbEntity
  8
팀플 평면 최종 v6_0
100
AcDbLine
 10
285.2
 20
422.219
 30
0.0
 11
285.17
 21
422.271
 31
0.0
  0
LINE
  5
499
330
70
100
AcDbEntity
  8
팀플 평면 최종 v6_0
100
AcDbLine
 10
282.2
 20
442.2179999999999
 30
0.0
 11
282.17
 21
442.27
 31
0.0
  0
LINE
  5
49A
330
70
100
AcDbEntity
  8
팀플 평면 최종 v6_0
100
AcDbLine
 10
258.7
 20
445.22
 30
0.0
 11
258.67
 21
445.273
 31
0.0
  0
LINE
  5
49B
330
70
100
AcDbEntity
  8
팀플 평면 최종 v6_0
100
AcDbLine
 10
282.162
 20
422.261
 30
0.0
 11
282.185
 21
422.2569999999999
 31
0.0
  0
LINE
  5
49C
330
70
100
AcDbEntity
  8
팀플 평면 최종 v6_0
100
AcDbLine
 10
282.185
 20
434.259
 30
0.0
 11
282.2
 21
434.291
 31
0.0
  0
LINE
  5
49D
330
70
100
AcDbEntity
  8
팀플 평면 최종 v6_0
100
AcDbLine
 10
258.662
 20
442.263
 30
0.0
 11
258.685
 21
442.26
 31
0.0
  0
LINE
  5
49E
330
70
100
AcDbEntity
  8
팀플 평면 최종 v6_0
100
AcDbLine
 10
270.662
 20
442.263
 30
0.0
 11
270.685
 21
442.26
 31
0.0
  0
LINE
  5
49F
330
70
100
AcDbEntity
  8
팀플 평면 최종 v6_0
100
AcDbLine
 10
264.501
 20
442.302
 30
0.0
 11
264.501
 21
442.2919999999999
 31
0.0
  0
LINE
  5
4A0
330
70
100
AcDbEntity
  8
팀플 평면 최종 v6_0
100
AcDbLine
 10
264.582
 20
445.301
 30
0.0
 11
264.53
 21
445.273
 31
0.0
  0
LINE
  5
4A1
330
70
100
AcDbEntity
  8
팀플 평면 최종 v6_0
100
AcDbLine
 10
282.157
 20
416.116
 30
0.0
 11
282.1890000000001
 21
416.101
 31
0.0
  0
LINE
  5
4A2
330
70
100
AcDbEntity
  8
팀플 평면 최종 v6_0
100
AcDbLine
 10
264.515
 20
442.26
 30
0.0
 11
264.538
 21
442.263
 31
0.0
  0
LINE
  5
4A3
330
70
100
AcDbEntity
  8
팀플 평면 최종 v6_0
100
AcDbLine
 10
282.2
 20
416.1119999999999
 30
0.0
 11
282.185
 21
416.1439999999999
 31
0.0
  0
LINE
  5
4A4
330
70
100
AcDbEntity
  8
팀플 평면 최종 v6_0
100
AcDbLine
 10
282.1890000000001
 20
416.101
 30
0.0
 11
282.2
 21
416.101
 31
0.0
  0
LINE
  5
4A5
330
70
100
AcDbEntity
  8
팀플 평면 최종 v6_0
100
AcDbLine
 10
282.185
 20
410.2590000000001
 30
0.0
 11
282.2
 21
410.2909999999999
 31
0.0
  0
LINE
  5
4A6
330
70
100
AcDbEntity
  8
팀플 평면 최종 v6_0
100
AcDbLine
 10
282.157
 20
422.2859999999999
 30
0.0
 11
282.162
 21
422.261
 31
0.0
  0
LINE
  5
4A7
330
70
100
AcDbEntity
  8
팀플 평면 최종 v6_0
100
AcDbLine
 10
252.499
 20
442.2919999999999
 30
0.0
 11
252.513
 21
442.26
 31
0.0
  0
LINE
  5
4A8
330
70
100
AcDbEntity
  8
팀플 평면 최종 v6_0
100
AcDbLine
 10
285.116
 20
410.298
 30
0.0
 11
285.099
 21
410.298
 31
0.0
  0
LINE
  5
4A9
330
70
100
AcDbEntity
  8
팀플 평면 최종 v6_0
100
AcDbLine
 10
285.17
 20
422.271
 30
0.0
 11
285.116
 21
422.3
 31
0.0
  0
LINE
  5
4AA
330
70
100
AcDbEntity
  8
팀플 평면 최종 v6_0
100
AcDbLine
 10
282.2
 20
416.101
 30
0.0
 11
285.099
 21
416.101
 31
0.0
  0
LINE
  5
4AB
330
70
100
AcDbEntity
  8
팀플 평면 최종 v6_0
100
AcDbLine
 10
270.701
 20
442.302
 30
0.0
 11
270.69
 21
442.302
 31
0.0
  0
LINE
  5
4AC
330
70
100
AcDbEntity
  8
팀플 평면 최종 v6_0
100
AcDbLine
 10
282.2
 20
422.289
 30
0.0
 11
282.2
 21
422.3
 31
0.0
  0
LINE
  5
4AD
330
70
100
AcDbEntity
  8
팀플 평면 최종 v6_0
100
AcDbLine
 10
240.582
 20
445.301
 30
0.0
 11
240.528
 21
445.273
 31
0.0
  0
LINE
  5
4AE
330
70
100
AcDbEntity
  8
팀플 평면 최종 v6_0
100
AcDbLine
 10
210.701
 20
442.2919999999999
 30
0.0
 11
210.701
 21
442.302
 31
0.0
  0
LINE
  5
4AF
330
70
100
AcDbEntity
  8
팀플 평면 최종 v6_0
100
AcDbLine
 10
252.499
 20
442.302
 30
0.0
 11
252.499
 21
442.2919999999999
 31
0.0
  0
LINE
  5
4B0
330
70
100
AcDbEntity
  8
팀플 평면 최종 v6_0
100
AcDbLine
 10
285.17
 20
416.1299999999999
 30
0.0
 11
285.2
 21
416.183
 31
0.0
  0
LINE
  5
4B1
330
70
100
AcDbEntity
  8
팀플 평면 최종 v6_0
100
AcDbLine
 10
270.658
 20
442.2880000000001
 30
0.0
 11
270.662
 21
442.263
 31
0.0
  0
LINE
  5
4B2
330
70
100
AcDbEntity
  8
팀플 평면 최종 v6_0
100
AcDbLine
 10
252.499
 20
445.22
 30
0.0
 11
252.499
 21
445.1979999999999
 31
0.0
  0
LINE
  5
4B3
330
70
100
AcDbEntity
  8
팀플 평면 최종 v6_0
100
AcDbLine
 10
240.541
 20
442.2880000000001
 30
0.0
 11
240.509
 21
442.302
 31
0.0
  0
LINE
  5
4B4
330
70
100
AcDbEntity
  8
팀플 평면 최종 v6_0
100
AcDbLine
 10
270.701
 20
445.198
 30
0.0
 11
270.701
 21
445.22
 31
0.0
  0
LINE
  5
4B5
330
70
100
AcDbEntity
  8
팀플 평면 최종 v6_0
100
AcDbLine
 10
282.2
 20
416.101
 30
0.0
 11
282.2
 21
416.1119999999999
 31
0.0
  0
LINE
  5
4B6
330
70
100
AcDbEntity
  8
팀플 평면 최종 v6_0
100
AcDbLine
 10
210.689
 20
442.302
 30
0.0
 11
210.658
 21
442.2880000000001
 31
0.0
  0
LINE
  5
4B7
330
70
100
AcDbEntity
  8
팀플 평면 최종 v6_0
100
AcDbLine
 10
282.185
 20
416.1439999999999
 30
0.0
 11
282.162
 21
416.1399999999999
 31
0.0
  0
LINE
  5
4B8
330
70
100
AcDbEntity
  8
팀플 평면 최종 v6_0
100
AcDbLine
 10
264.53
 20
445.273
 30
0.0
 11
264.501
 21
445.22
 31
0.0
  0
LINE
  5
4B9
330
70
100
AcDbEntity
  8
팀플 평면 최종 v6_0
100
AcDbLine
 10
282.185
 20
428.1419999999999
 30
0.0
 11
282.162
 21
428.1380000000001
 31
0.0
  0
LINE
  5
4BA
330
70
100
AcDbEntity
  8
팀플 평면 최종 v6_0
100
AcDbLine
 10
234.701
 20
442.302
 30
0.0
 11
234.701
 21
445.198
 31
0.0
  0
LINE
  5
4BB
330
70
100
AcDbEntity
  8
팀플 평면 최종 v6_0
100
AcDbLine
 10
264.538
 20
442.263
 30
0.0
 11
264.542
 21
442.2880000000001
 31
0.0
  0
LINE
  5
4BC
330
70
100
AcDbEntity
  8
팀플 평면 최종 v6_0
100
AcDbLine
 10
285.116
 20
416.101
 30
0.0
 11
285.17
 21
416.1299999999999
 31
0.0
  0
LINE
  5
4BD
330
70
100
AcDbEntity
  8
팀플 평면 최종 v6_0
100
AcDbLine
 10
282.2
 20
434.301
 30
0.0
 11
282.2
 21
442.1999999999999
 31
0.0
  0
LINE
  5
4BE
330
70
100
AcDbEntity
  8
팀플 평면 최종 v6_0
100
AcDbLine
 10
282.157
 20
410.2879999999999
 30
0.0
 11
282.162
 21
410.263
 31
0.0
  0
LINE
  5
4BF
330
70
100
AcDbEntity
  8
팀플 평면 최종 v6_0
100
AcDbLine
 10
282.1890000000001
 20
434.301
 30
0.0
 11
282.157
 21
434.287
 31
0.0
  0
LINE
  5
4C0
330
70
100
AcDbEntity
  8
팀플 평면 최종 v6_0
100
AcDbLine
 10
285.2
 20
416.183
 30
0.0
 11
285.2
 21
416.2
 31
0.0
  0
LINE
  5
4C1
330
70
100
AcDbEntity
  8
팀플 평면 최종 v6_0
100
AcDbLine
 10
282.185
 20
422.2569999999999
 30
0.0
 11
282.2
 21
422.2889999999999
 31
0.0
  0
LINE
  5
4C2
330
70
100
AcDbEntity
  8
팀플 평면 최종 v6_0
100
AcDbLine
 10
282.162
 20
410.263
 30
0.0
 11
282.185
 21
410.259
 31
0.0
  0
LINE
  5
4C3
330
70
100
AcDbEntity
  8
팀플 평면 최종 v6_0
100
AcDbLine
 10
270.701
 20
445.22
 30
0.0
 11
270.67
 21
445.273
 31
0.0
  0
LINE
  5
4C4
330
70
100
AcDbEntity
  8
팀플 평면 최종 v6_0
100
AcDbLine
 10
282.2
 20
442.1999999999999
 30
0.0
 11
282.2
 21
442.2179999999999
 31
0.0
  0
LINE
  5
4C5
330
70
100
AcDbEntity
  8
팀플 평면 최종 v6_0
100
AcDbLine
 10
246.662
 20
442.263
 30
0.0
 11
246.686
 21
442.26
 31
0.0
  0
LINE
  5
4C6
330
70
100
AcDbEntity
  8
팀플 평면 최종 v6_0
100
AcDbLine
 10
258.616
 20
445.301
 30
0.0
 11
258.6
 21
445.301
 31
0.0
  0
LINE
  5
4C7
330
70
100
AcDbEntity
  8
팀플 평면 최종 v6_0
100
AcDbLine
 10
246.686
 20
442.26
 30
0.0
 11
246.701
 21
442.2919999999999
 31
0.0
  0
LINE
  5
4C8
330
70
100
AcDbEntity
  8
팀플 평면 최종 v6_0
100
AcDbLine
 10
222.7
 20
445.22
 30
0.0
 11
222.67
 21
445.273
 31
0.0
  0
LINE
  5
4C9
330
70
100
AcDbEntity
  8
팀플 평면 최종 v6_0
100
AcDbLine
 10
210.701
 20
442.302
 30
0.0
 11
210.689
 21
442.302
 31
0.0
  0
LINE
  5
4CA
330
70
100
AcDbEntity
  8
팀플 평면 최종 v6_0
100
AcDbLine
 10
234.658
 20
442.2880000000001
 30
0.0
 11
234.662
 21
442.263
 31
0.0
  0
LINE
  5
4CB
330
70
100
AcDbEntity
  8
팀플 평면 최종 v6_0
100
AcDbLine
 10
258.6700000000001
 20
445.273
 30
0.0
 11
258.616
 21
445.301
 31
0.0
  0
LINE
  5
4CC
330
70
100
AcDbEntity
  8
팀플 평면 최종 v6_0
100
AcDbLine
 10
222.7
 20
442.302
 30
0.0
 11
222.7
 21
445.198
 31
0.0
  0
LINE
  5
4CD
330
70
100
AcDbEntity
  8
팀플 평면 최종 v6_0
100
AcDbLine
 10
210.701
 20
442.302
 30
0.0
 11
210.701
 21
445.198
 31
0.0
  0
LINE
  5
4CE
330
70
100
AcDbEntity
  8
팀플 평면 최종 v6_0
100
AcDbLine
 10
234.67
 20
445.273
 30
0.0
 11
234.617
 21
445.301
 31
0.0
  0
LINE
  5
4CF
330
70
100
AcDbEntity
  8
팀플 평면 최종 v6_0
100
AcDbLine
 10
264.501
 20
445.198
 30
0.0
 11
264.501
 21
442.302
 31
0.0
  0
LINE
  5
4D0
330
70
100
AcDbEntity
  8
팀플 평면 최종 v6_0
100
AcDbLine
 10
264.501
 20
445.22
 30
0.0
 11
264.501
 21
445.1979999999999
 31
0.0
  0
LINE
  5
4D1
330
70
100
AcDbEntity
  8
팀플 평면 최종 v6_0
100
AcDbLine
 10
258.7
 20
442.302
 30
0.0
 11
258.689
 21
442.302
 31
0.0
  0
LINE
  5
4D2
330
70
100
AcDbEntity
  8
팀플 평면 최종 v6_0
100
AcDbLine
 10
252.541
 20
442.2880000000001
 30
0.0
 11
252.509
 21
442.302
 31
0.0
  0
LINE
  5
4D3
330
70
100
AcDbEntity
  8
팀플 평면 최종 v6_0
100
AcDbLine
 10
246.701
 20
445.198
 30
0.0
 11
246.701
 21
445.22
 31
0.0
  0
LINE
  5
4D4
330
70
100
AcDbEntity
  8
팀플 평면 최종 v6_0
100
AcDbLine
 10
216.499
 20
442.302
 30
0.0
 11
210.701
 21
442.302
 31
0.0
  0
LINE
  5
4D5
330
70
100
AcDbEntity
  8
팀플 평면 최종 v6_0
100
AcDbLine
 10
264.501
 20
442.2919999999999
 30
0.0
 11
264.515
 21
442.26
 31
0.0
  0
LINE
  5
4D6
330
70
100
AcDbEntity
  8
팀플 평면 최종 v6_0
100
AcDbLine
 10
228.515
 20
442.26
 30
0.0
 11
228.538
 21
442.263
 31
0.0
  0
LINE
  5
4D7
330
70
100
AcDbEntity
  8
팀플 평면 최종 v6_0
100
AcDbLine
 10
252.509
 20
442.302
 30
0.0
 11
252.499
 21
442.302
 31
0.0
  0
LINE
  5
4D8
330
70
100
AcDbEntity
  8
팀플 평면 최종 v6_0
100
AcDbLine
 10
258.689
 20
442.302
 30
0.0
 11
258.658
 21
442.2880000000001
 31
0.0
  0
LINE
  5
4D9
330
70
100
AcDbEntity
  8
팀플 평면 최종 v6_0
100
AcDbLine
 10
270.6
 20
445.301
 30
0.0
 11
264.6
 21
445.301
 31
0.0
  0
LINE
  5
4DA
330
70
100
AcDbEntity
  8
팀플 평면 최종 v6_0
100
AcDbLine
 10
252.5370000000001
 20
442.263
 30
0.0
 11
252.541
 21
442.2880000000001
 31
0.0
  0
LINE
  5
4DB
330
70
100
AcDbEntity
  8
팀플 평면 최종 v6_0
100
AcDbLine
 10
264.6
 20
445.301
 30
0.0
 11
264.582
 21
445.301
 31
0.0
  0
LINE
  5
4DC
330
70
100
AcDbEntity
  8
팀플 평면 최종 v6_0
100
AcDbLine
 10
264.501
 20
442.302
 30
0.0
 11
258.7
 21
442.302
 31
0.0
  0
LINE
  5
4DD
330
70
100
AcDbEntity
  8
팀플 평면 최종 v6_0
100
AcDbLine
 10
270.617
 20
445.301
 30
0.0
 11
270.6
 21
445.301
 31
0.0
  0
LINE
  5
4DE
330
70
100
AcDbEntity
  8
팀플 평면 최종 v6_0
100
AcDbLine
 10
252.528
 20
445.273
 30
0.0
 11
252.4990000000001
 21
445.22
 31
0.0
  0
LINE
  5
4DF
330
70
100
AcDbEntity
  8
팀플 평면 최종 v6_0
100
AcDbLine
 10
228.582
 20
445.301
 30
0.0
 11
228.53
 21
445.273
 31
0.0
  0
LINE
  5
4E0
330
70
100
AcDbEntity
  8
팀플 평면 최종 v6_0
100
AcDbLine
 10
270.69
 20
442.302
 30
0.0
 11
270.6580000000001
 21
442.2880000000001
 31
0.0
  0
LINE
  5
4E1
330
70
100
AcDbEntity
  8
팀플 평면 최종 v6_0
100
AcDbLine
 10
228.501
 20
445.22
 30
0.0
 11
228.501
 21
445.1979999999999
 31
0.0
  0
LINE
  5
4E2
330
70
100
AcDbEntity
  8
팀플 평면 최종 v6_0
100
AcDbLine
 10
252.513
 20
442.26
 30
0.0
 11
252.5370000000001
 21
442.263
 31
0.0
  0
LINE
  5
4E3
330
70
100
AcDbEntity
  8
팀플 평면 최종 v6_0
100
AcDbLine
 10
252.582
 20
445.301
 30
0.0
 11
252.528
 21
445.273
 31
0.0
  0
LINE
  5
4E4
330
70
100
AcDbEntity
  8
팀플 평면 최종 v6_0
100
AcDbLine
 10
258.7
 20
442.2919999999999
 30
0.0
 11
258.7
 21
442.302
 31
0.0
  0
LINE
  5
4E5
330
70
100
AcDbEntity
  8
팀플 평면 최종 v6_0
100
AcDbLine
 10
270.685
 20
442.26
 30
0.0
 11
270.701
 21
442.2919999999999
 31
0.0
  0
LINE
  5
4E6
330
70
100
AcDbEntity
  8
팀플 평면 최종 v6_0
100
AcDbLine
 10
270.701
 20
442.2919999999999
 30
0.0
 11
270.701
 21
442.302
 31
0.0
  0
LINE
  5
4E7
330
70
100
AcDbEntity
  8
팀플 평면 최종 v6_0
100
AcDbLine
 10
246.701
 20
442.302
 30
0.0
 11
246.701
 21
445.198
 31
0.0
  0
LINE
  5
4E8
330
70
100
AcDbEntity
  8
팀플 평면 최종 v6_0
100
AcDbLine
 10
246.701
 20
442.302
 30
0.0
 11
246.6890000000001
 21
442.302
 31
0.0
  0
LINE
  5
4E9
330
70
100
AcDbEntity
  8
팀플 평면 최종 v6_0
100
AcDbLine
 10
258.685
 20
442.26
 30
0.0
 11
258.7
 21
442.2919999999999
 31
0.0
  0
LINE
  5
4EA
330
70
100
AcDbEntity
  8
팀플 평면 최종 v6_0
100
AcDbLine
 10
258.6
 20
445.301
 30
0.0
 11
252.6
 21
445.301
 31
0.0
  0
LINE
  5
4EB
330
70
100
AcDbEntity
  8
팀플 평면 최종 v6_0
100
AcDbLine
 10
258.658
 20
442.2880000000001
 30
0.0
 11
258.662
 21
442.263
 31
0.0
  0
LINE
  5
4EC
330
70
100
AcDbEntity
  8
팀플 평면 최종 v6_0
100
AcDbLine
 10
252.499
 20
442.302
 30
0.0
 11
246.701
 21
442.302
 31
0.0
  0
LINE
  5
4ED
330
70
100
AcDbEntity
  8
팀플 평면 최종 v6_0
100
AcDbLine
 10
264.542
 20
442.2880000000001
 30
0.0
 11
264.51
 21
442.302
 31
0.0
  0
LINE
  5
4EE
330
70
100
AcDbEntity
  8
팀플 평면 최종 v6_0
100
AcDbLine
 10
252.499
 20
445.198
 30
0.0
 11
252.499
 21
442.302
 31
0.0
  0
LINE
  5
4EF
330
70
100
AcDbEntity
  8
팀플 평면 최종 v6_0
100
AcDbLine
 10
246.67
 20
445.273
 30
0.0
 11
246.616
 21
445.301
 31
0.0
  0
LINE
  5
4F0
330
70
100
AcDbEntity
  8
팀플 평면 최종 v6_0
100
AcDbLine
 10
246.616
 20
445.301
 30
0.0
 11
246.6
 21
445.301
 31
0.0
  0
LINE
  5
4F1
330
70
100
AcDbEntity
  8
팀플 평면 최종 v6_0
100
AcDbLine
 10
252.6
 20
445.301
 30
0.0
 11
252.582
 21
445.301
 31
0.0
  0
LINE
  5
4F2
330
70
100
AcDbEntity
  8
팀플 평면 최종 v6_0
100
AcDbLine
 10
258.7
 20
442.302
 30
0.0
 11
258.7
 21
445.198
 31
0.0
  0
LINE
  5
4F3
330
70
100
AcDbEntity
  8
팀플 평면 최종 v6_0
100
AcDbLine
 10
258.7
 20
445.198
 30
0.0
 11
258.7
 21
445.22
 31
0.0
  0
LINE
  5
4F4
330
70
100
AcDbEntity
  8
팀플 평면 최종 v6_0
100
AcDbLine
 10
246.701
 20
445.22
 30
0.0
 11
246.67
 21
445.273
 31
0.0
  0
LINE
  5
4F5
330
70
100
AcDbEntity
  8
팀플 평면 최종 v6_0
100
AcDbLine
 10
246.6890000000001
 20
442.302
 30
0.0
 11
246.658
 21
442.2880000000001
 31
0.0
  0
LINE
  5
4F6
330
70
100
AcDbEntity
  8
팀플 평면 최종 v6_0
100
AcDbLine
 10
246.6
 20
445.301
 30
0.0
 11
240.6
 21
445.301
 31
0.0
  0
LINE
  5
4F7
330
70
100
AcDbEntity
  8
팀플 평면 최종 v6_0
100
AcDbLine
 10
216.582
 20
445.301
 30
0.0
 11
216.528
 21
445.273
 31
0.0
  0
LINE
  5
4F8
330
70
100
AcDbEntity
  8
팀플 평면 최종 v6_0
100
AcDbLine
 10
240.6
 20
445.301
 30
0.0
 11
240.582
 21
445.301
 31
0.0
  0
LINE
  5
4F9
330
70
100
AcDbEntity
  8
팀플 평면 최종 v6_0
100
AcDbLine
 10
246.701
 20
442.2919999999999
 30
0.0
 11
246.701
 21
442.302
 31
0.0
  0
LINE
  5
4FA
330
70
100
AcDbEntity
  8
팀플 평면 최종 v6_0
100
AcDbLine
 10
216.537
 20
442.263
 30
0.0
 11
216.541
 21
442.2880000000001
 31
0.0
  0
LINE
  5
4FB
330
70
100
AcDbEntity
  8
팀플 평면 최종 v6_0
100
AcDbLine
 10
246.658
 20
442.2880000000001
 30
0.0
 11
246.662
 21
442.263
 31
0.0
  0
LINE
  5
4FC
330
70
100
AcDbEntity
  8
팀플 평면 최종 v6_0
100
AcDbLine
 10
222.7
 20
445.198
 30
0.0
 11
222.7
 21
445.22
 31
0.0
  0
LINE
  5
4FD
330
70
100
AcDbEntity
  8
팀플 평면 최종 v6_0
100
AcDbLine
 10
240.4990000000001
 20
442.2919999999999
 30
0.0
 11
240.513
 21
442.26
 31
0.0
  0
LINE
  5
4FE
330
70
100
AcDbEntity
  8
팀플 평면 최종 v6_0
100
AcDbLine
 10
216.513
 20
442.26
 30
0.0
 11
216.537
 21
442.263
 31
0.0
  0
LINE
  5
4FF
330
70
100
AcDbEntity
  8
팀플 평면 최종 v6_0
100
AcDbLine
 10
222.6
 20
445.301
 30
0.0
 11
216.6
 21
445.301
 31
0.0
  0
LINE
  5
500
330
70
100
AcDbEntity
  8
팀플 평면 최종 v6_0
100
AcDbLine
 10
222.69
 20
442.302
 30
0.0
 11
222.658
 21
442.2880000000001
 31
0.0
  0
LINE
  5
501
330
70
100
AcDbEntity
  8
팀플 평면 최종 v6_0
100
AcDbLine
 10
216.6
 20
445.301
 30
0.0
 11
216.582
 21
445.301
 31
0.0
  0
LINE
  5
502
330
70
100
AcDbEntity
  8
팀플 평면 최종 v6_0
100
AcDbLine
 10
234.685
 20
442.26
 30
0.0
 11
234.701
 21
442.2919999999999
 31
0.0
  0
LINE
  5
503
330
70
100
AcDbEntity
  8
팀플 평면 최종 v6_0
100
AcDbLine
 10
222.7
 20
442.2919999999999
 30
0.0
 11
222.7
 21
442.302
 31
0.0
  0
LINE
  5
504
330
70
100
AcDbEntity
  8
팀플 평면 최종 v6_0
100
AcDbLine
 10
192.513
 20
442.26
 30
0.0
 11
192.537
 21
442.263
 31
0.0
  0
LINE
  5
505
330
70
100
AcDbEntity
  8
팀플 평면 최종 v6_0
100
AcDbLine
 10
228.538
 20
442.263
 30
0.0
 11
228.542
 21
442.2880000000001
 31
0.0
  0
LINE
  5
506
330
70
100
AcDbEntity
  8
팀플 평면 최종 v6_0
100
AcDbLine
 10
204.509
 20
442.302
 30
0.0
 11
204.5
 21
442.302
 31
0.0
  0
LINE
  5
507
330
70
100
AcDbEntity
  8
팀플 평면 최종 v6_0
100
AcDbLine
 10
240.4990000000001
 20
445.198
 30
0.0
 11
240.4990000000001
 21
442.302
 31
0.0
  0
LINE
  5
508
330
70
100
AcDbEntity
  8
팀플 평면 최종 v6_0
100
AcDbLine
 10
198.657
 20
442.2880000000001
 30
0.0
 11
198.662
 21
442.263
 31
0.0
  0
LINE
  5
509
330
70
100
AcDbEntity
  8
팀플 평면 최종 v6_0
100
AcDbLine
 10
222.662
 20
442.263
 30
0.0
 11
222.685
 21
442.26
 31
0.0
  0
LINE
  5
50A
330
70
100
AcDbEntity
  8
팀플 평면 최종 v6_0
100
AcDbLine
 10
210.662
 20
442.263
 30
0.0
 11
210.686
 21
442.26
 31
0.0
  0
LINE
  5
50B
330
70
100
AcDbEntity
  8
팀플 평면 최종 v6_0
100
AcDbLine
 10
216.499
 20
445.198
 30
0.0
 11
216.499
 21
442.302
 31
0.0
  0
LINE
  5
50C
330
70
100
AcDbEntity
  8
팀플 평면 최종 v6_0
100
AcDbLine
 10
210.658
 20
442.2880000000001
 30
0.0
 11
210.662
 21
442.263
 31
0.0
  0
LINE
  5
50D
330
70
100
AcDbEntity
  8
팀플 평면 최종 v6_0
100
AcDbLine
 10
186.617
 20
445.301
 30
0.0
 11
186.6
 21
445.301
 31
0.0
  0
LINE
  5
50E
330
70
100
AcDbEntity
  8
팀플 평면 최종 v6_0
100
AcDbLine
 10
222.7
 20
442.302
 30
0.0
 11
222.69
 21
442.302
 31
0.0
  0
LINE
  5
50F
330
70
100
AcDbEntity
  8
팀플 평면 최종 v6_0
100
AcDbLine
 10
186.6559999999999
 20
442.2880000000001
 30
0.0
 11
186.662
 21
442.263
 31
0.0
  0
LINE
  5
510
330
70
100
AcDbEntity
  8
팀플 평면 최종 v6_0
100
AcDbLine
 10
228.53
 20
445.273
 30
0.0
 11
228.501
 21
445.22
 31
0.0
  0
LINE
  5
511
330
70
100
AcDbEntity
  8
팀플 평면 최종 v6_0
100
AcDbLine
 10
222.67
 20
445.273
 30
0.0
 11
222.6170000000001
 21
445.301
 31
0.0
  0
LINE
  5
512
330
70
100
AcDbEntity
  8
팀플 평면 최종 v6_0
100
AcDbLine
 10
204.513
 20
442.26
 30
0.0
 11
204.537
 21
442.263
 31
0.0
  0
LINE
  5
513
330
70
100
AcDbEntity
  8
팀플 평면 최종 v6_0
100
AcDbLine
 10
216.499
 20
442.302
 30
0.0
 11
216.499
 21
442.2919999999999
 31
0.0
  0
LINE
  5
514
330
70
100
AcDbEntity
  8
팀플 평면 최종 v6_0
100
AcDbLine
 10
216.5090000000001
 20
442.302
 30
0.0
 11
216.499
 21
442.302
 31
0.0
  0
LINE
  5
515
330
70
100
AcDbEntity
  8
팀플 평면 최종 v6_0
100
AcDbLine
 10
228.501
 20
442.302
 30
0.0
 11
228.501
 21
442.2919999999999
 31
0.0
  0
LINE
  5
516
330
70
100
AcDbEntity
  8
팀플 평면 최종 v6_0
100
AcDbLine
 10
234.701
 20
442.302
 30
0.0
 11
234.69
 21
442.302
 31
0.0
  0
LINE
  5
517
330
70
100
AcDbEntity
  8
팀플 평면 최종 v6_0
100
AcDbLine
 10
216.541
 20
442.2880000000001
 30
0.0
 11
216.5090000000001
 21
442.302
 31
0.0
  0
LINE
  5
518
330
70
100
AcDbEntity
  8
팀플 평면 최종 v6_0
100
AcDbLine
 10
234.701
 20
442.2919999999999
 30
0.0
 11
234.701
 21
442.302
 31
0.0
  0
LINE
  5
519
330
70
100
AcDbEntity
  8
팀플 평면 최종 v6_0
100
AcDbLine
 10
234.701
 20
445.22
 30
0.0
 11
234.67
 21
445.273
 31
0.0
  0
LINE
  5
51A
330
70
100
AcDbEntity
  8
팀플 평면 최종 v6_0
100
AcDbLine
 10
216.499
 20
445.22
 30
0.0
 11
216.499
 21
445.1979999999999
 31
0.0
  0
LINE
  5
51B
330
70
100
AcDbEntity
  8
팀플 평면 최종 v6_0
100
AcDbLine
 10
216.528
 20
445.273
 30
0.0
 11
216.499
 21
445.22
 31
0.0
  0
LINE
  5
51C
330
70
100
AcDbEntity
  8
팀플 평면 최종 v6_0
100
AcDbLine
 10
228.542
 20
442.2880000000001
 30
0.0
 11
228.51
 21
442.302
 31
0.0
  0
LINE
  5
51D
330
70
100
AcDbEntity
  8
팀플 평면 최종 v6_0
100
AcDbLine
 10
228.501
 20
442.302
 30
0.0
 11
222.7
 21
442.302
 31
0.0
  0
LINE
  5
51E
330
70
100
AcDbEntity
  8
팀플 평면 최종 v6_0
100
AcDbLine
 10
234.617
 20
445.301
 30
0.0
 11
234.6
 21
445.301
 31
0.0
  0
LINE
  5
51F
330
70
100
AcDbEntity
  8
팀플 평면 최종 v6_0
100
AcDbLine
 10
234.662
 20
442.263
 30
0.0
 11
234.685
 21
442.26
 31
0.0
  0
LINE
  5
520
330
70
100
AcDbEntity
  8
팀플 평면 최종 v6_0
100
AcDbLine
 10
228.501
 20
445.198
 30
0.0
 11
228.501
 21
442.302
 31
0.0
  0
LINE
  5
521
330
70
100
AcDbEntity
  8
팀플 평면 최종 v6_0
100
AcDbLine
 10
234.701
 20
445.198
 30
0.0
 11
234.701
 21
445.22
 31
0.0
  0
LINE
  5
522
330
70
100
AcDbEntity
  8
팀플 평면 최종 v6_0
100
AcDbLine
 10
228.6
 20
445.301
 30
0.0
 11
228.582
 21
445.301
 31
0.0
  0
LINE
  5
523
330
70
100
AcDbEntity
  8
팀플 평면 최종 v6_0
100
AcDbLine
 10
222.6170000000001
 20
445.301
 30
0.0
 11
222.6
 21
445.301
 31
0.0
  0
LINE
  5
524
330
70
100
AcDbEntity
  8
팀플 평면 최종 v6_0
100
AcDbLine
 10
216.499
 20
442.2919999999999
 30
0.0
 11
216.513
 21
442.26
 31
0.0
  0
LINE
  5
525
330
70
100
AcDbEntity
  8
팀플 평면 최종 v6_0
100
AcDbLine
 10
228.51
 20
442.302
 30
0.0
 11
228.501
 21
442.302
 31
0.0
  0
LINE
  5
526
330
70
100
AcDbEntity
  8
팀플 평면 최종 v6_0
100
AcDbLine
 10
210.701
 20
445.198
 30
0.0
 11
210.701
 21
445.22
 31
0.0
  0
LINE
  5
527
330
70
100
AcDbEntity
  8
팀플 평면 최종 v6_0
100
AcDbLine
 10
234.69
 20
442.302
 30
0.0
 11
234.658
 21
442.2880000000001
 31
0.0
  0
LINE
  5
528
330
70
100
AcDbEntity
  8
팀플 평면 최종 v6_0
100
AcDbLine
 10
240.4990000000001
 20
442.302
 30
0.0
 11
240.4990000000001
 21
442.2919999999999
 31
0.0
  0
LINE
  5
529
330
70
100
AcDbEntity
  8
팀플 평면 최종 v6_0
100
AcDbLine
 10
228.501
 20
442.2919999999999
 30
0.0
 11
228.515
 21
442.26
 31
0.0
  0
LINE
  5
52A
330
70
100
AcDbEntity
  8
팀플 평면 최종 v6_0
100
AcDbLine
 10
240.537
 20
442.263
 30
0.0
 11
240.541
 21
442.2880000000001
 31
0.0
  0
LINE
  5
52B
330
70
100
AcDbEntity
  8
팀플 평면 최종 v6_0
100
AcDbLine
 10
240.4990000000001
 20
442.302
 30
0.0
 11
234.701
 21
442.302
 31
0.0
  0
LINE
  5
52C
330
70
100
AcDbEntity
  8
팀플 평면 최종 v6_0
100
AcDbLine
 10
240.513
 20
442.26
 30
0.0
 11
240.537
 21
442.263
 31
0.0
  0
LINE
  5
52D
330
70
100
AcDbEntity
  8
팀플 평면 최종 v6_0
100
AcDbLine
 10
210.686
 20
442.26
 30
0.0
 11
210.701
 21
442.2919999999999
 31
0.0
  0
LINE
  5
52E
330
70
100
AcDbEntity
  8
팀플 평면 최종 v6_0
100
AcDbLine
 10
222.658
 20
442.2880000000001
 30
0.0
 11
222.662
 21
442.263
 31
0.0
  0
LINE
  5
52F
330
70
100
AcDbEntity
  8
팀플 평면 최종 v6_0
100
AcDbLine
 10
234.6
 20
445.301
 30
0.0
 11
228.6
 21
445.301
 31
0.0
  0
LINE
  5
530
330
70
100
AcDbEntity
  8
팀플 평면 최종 v6_0
100
AcDbLine
 10
222.685
 20
442.26
 30
0.0
 11
222.7
 21
442.2919999999999
 31
0.0
  0
LINE
  5
531
330
70
100
AcDbEntity
  8
팀플 평면 최종 v6_0
100
AcDbLine
 10
186.662
 20
442.263
 30
0.0
 11
186.684
 21
442.26
 31
0.0
  0
LINE
  5
532
330
70
100
AcDbEntity
  8
팀플 평면 최종 v6_0
100
AcDbLine
 10
240.509
 20
442.302
 30
0.0
 11
240.499
 21
442.302
 31
0.0
  0
LINE
  5
533
330
70
100
AcDbEntity
  8
팀플 평면 최종 v6_0
100
AcDbLine
 10
186.688
 20
442.302
 30
0.0
 11
186.6559999999999
 21
442.2880000000001
 31
0.0
  0
LINE
  5
534
330
70
100
AcDbEntity
  8
팀플 평면 최종 v6_0
100
AcDbLine
 10
186.7
 20
445.22
 30
0.0
 11
186.671
 21
445.273
 31
0.0
  0
LINE
  5
535
330
70
100
AcDbEntity
  8
팀플 평면 최종 v6_0
100
AcDbLine
 10
186.7
 20
442.302
 30
0.0
 11
186.7
 21
445.198
 31
0.0
  0
LINE
  5
536
330
70
100
AcDbEntity
  8
팀플 평면 최종 v6_0
100
AcDbLine
 10
198.699
 20
445.22
 30
0.0
 11
198.67
 21
445.273
 31
0.0
  0
LINE
  5
537
330
70
100
AcDbEntity
  8
팀플 평면 최종 v6_0
100
AcDbLine
 10
186.7
 20
442.302
 30
0.0
 11
186.688
 21
442.302
 31
0.0
  0
LINE
  5
538
330
70
100
AcDbEntity
  8
팀플 평면 최종 v6_0
100
AcDbLine
 10
186.7
 20
445.198
 30
0.0
 11
186.7
 21
445.22
 31
0.0
  0
LINE
  5
539
330
70
100
AcDbEntity
  8
팀플 평면 최종 v6_0
100
AcDbLine
 10
192.5
 20
445.198
 30
0.0
 11
192.5
 21
442.302
 31
0.0
  0
LINE
  5
53A
330
70
100
AcDbEntity
  8
팀플 평면 최종 v6_0
100
AcDbLine
 10
204.529
 20
445.273
 30
0.0
 11
204.5
 21
445.22
 31
0.0
  0
LINE
  5
53B
330
70
100
AcDbEntity
  8
팀플 평면 최종 v6_0
100
AcDbLine
 10
198.699
 20
442.2919999999999
 30
0.0
 11
198.699
 21
442.302
 31
0.0
  0
LINE
  5
53C
330
70
100
AcDbEntity
  8
팀플 평면 최종 v6_0
100
AcDbLine
 10
186.684
 20
442.26
 30
0.0
 11
186.7
 21
442.2919999999999
 31
0.0
  0
LINE
  5
53D
330
70
100
AcDbEntity
  8
팀플 평면 최종 v6_0
100
AcDbLine
 10
186.7
 20
442.2919999999999
 30
0.0
 11
186.7
 21
442.302
 31
0.0
  0
LINE
  5
53E
330
70
100
AcDbEntity
  8
팀플 평면 최종 v6_0
100
AcDbLine
 10
180.509
 20
442.302
 30
0.0
 11
180.499
 21
442.302
 31
0.0
  0
LINE
  5
53F
330
70
100
AcDbEntity
  8
팀플 평면 최종 v6_0
100
AcDbLine
 10
204.5
 20
442.302
 30
0.0
 11
198.699
 21
442.302
 31
0.0
  0
LINE
  5
540
330
70
100
AcDbEntity
  8
팀플 평면 최종 v6_0
100
AcDbLine
 10
180.528
 20
445.273
 30
0.0
 11
180.499
 21
445.22
 31
0.0
  0
LINE
  5
541
330
70
100
AcDbEntity
  8
팀플 평면 최종 v6_0
100
AcDbLine
 10
180.499
 20
442.302
 30
0.0
 11
174.701
 21
442.302
 31
0.0
  0
LINE
  5
542
330
70
100
AcDbEntity
  8
팀플 평면 최종 v6_0
100
AcDbLine
 10
210.616
 20
445.301
 30
0.0
 11
210.6
 21
445.301
 31
0.0
  0
LINE
  5
543
330
70
100
AcDbEntity
  8
팀플 평면 최종 v6_0
100
AcDbLine
 10
204.5
 20
445.22
 30
0.0
 11
204.5
 21
445.1979999999999
 31
0.0
  0
LINE
  5
544
330
70
100
AcDbEntity
  8
팀플 평면 최종 v6_0
100
AcDbLine
 10
204.5
 20
445.198
 30
0.0
 11
204.5
 21
442.302
 31
0.0
  0
LINE
  5
545
330
70
100
AcDbEntity
  8
팀플 평면 최종 v6_0
100
AcDbLine
 10
198.699
 20
442.302
 30
0.0
 11
198.688
 21
442.302
 31
0.0
  0
LINE
  5
546
330
70
100
AcDbEntity
  8
팀플 평면 최종 v6_0
100
AcDbLine
 10
180.499
 20
442.302
 30
0.0
 11
180.499
 21
442.2919999999999
 31
0.0
  0
LINE
  5
547
330
70
100
AcDbEntity
  8
팀플 평면 최종 v6_0
100
AcDbLine
 10
180.513
 20
442.26
 30
0.0
 11
180.537
 21
442.263
 31
0.0
  0
LINE
  5
548
330
70
100
AcDbEntity
  8
팀플 평면 최종 v6_0
100
AcDbLine
 10
198.688
 20
442.302
 30
0.0
 11
198.657
 21
442.2880000000001
 31
0.0
  0
LINE
  5
549
330
70
100
AcDbEntity
  8
팀플 평면 최종 v6_0
100
AcDbLine
 10
180.6
 20
445.301
 30
0.0
 11
180.582
 21
445.301
 31
0.0
  0
LINE
  5
54A
330
70
100
AcDbEntity
  8
팀플 평면 최종 v6_0
100
AcDbLine
 10
192.509
 20
442.302
 30
0.0
 11
192.5
 21
442.302
 31
0.0
  0
LINE
  5
54B
330
70
100
AcDbEntity
  8
팀플 평면 최종 v6_0
100
AcDbLine
 10
198.699
 20
442.302
 30
0.0
 11
198.699
 21
445.198
 31
0.0
  0
LINE
  5
54C
330
70
100
AcDbEntity
  8
팀플 평면 최종 v6_0
100
AcDbLine
 10
180.582
 20
445.301
 30
0.0
 11
180.528
 21
445.273
 31
0.0
  0
LINE
  5
54D
330
70
100
AcDbEntity
  8
팀플 평면 최종 v6_0
100
AcDbLine
 10
198.684
 20
442.26
 30
0.0
 11
198.699
 21
442.2919999999999
 31
0.0
  0
LINE
  5
54E
330
70
100
AcDbEntity
  8
팀플 평면 최종 v6_0
100
AcDbLine
 10
180.499
 20
445.22
 30
0.0
 11
180.499
 21
445.1979999999999
 31
0.0
  0
LINE
  5
54F
330
70
100
AcDbEntity
  8
팀플 평면 최종 v6_0
100
AcDbLine
 10
180.499
 20
442.2919999999999
 30
0.0
 11
180.513
 21
442.26
 31
0.0
  0
LINE
  5
550
330
70
100
AcDbEntity
  8
팀플 평면 최종 v6_0
100
AcDbLine
 10
186.671
 20
445.273
 30
0.0
 11
186.617
 21
445.301
 31
0.0
  0
LINE
  5
551
330
70
100
AcDbEntity
  8
팀플 평면 최종 v6_0
100
AcDbLine
 10
180.541
 20
442.2880000000001
 30
0.0
 11
180.509
 21
442.302
 31
0.0
  0
LINE
  5
552
330
70
100
AcDbEntity
  8
팀플 평면 최종 v6_0
100
AcDbLine
 10
204.6
 20
445.301
 30
0.0
 11
204.582
 21
445.301
 31
0.0
  0
LINE
  5
553
330
70
100
AcDbEntity
  8
팀플 평면 최종 v6_0
100
AcDbLine
 10
180.499
 20
445.198
 30
0.0
 11
180.499
 21
442.302
 31
0.0
  0
LINE
  5
554
330
70
100
AcDbEntity
  8
팀플 평면 최종 v6_0
100
AcDbLine
 10
198.6
 20
445.301
 30
0.0
 11
192.6
 21
445.301
 31
0.0
  0
LINE
  5
555
330
70
100
AcDbEntity
  8
팀플 평면 최종 v6_0
100
AcDbLine
 10
192.5
 20
442.302
 30
0.0
 11
186.7
 21
442.302
 31
0.0
  0
LINE
  5
556
330
70
100
AcDbEntity
  8
팀플 평면 최종 v6_0
100
AcDbLine
 10
192.5
 20
445.22
 30
0.0
 11
192.5
 21
445.1979999999999
 31
0.0
  0
LINE
  5
557
330
70
100
AcDbEntity
  8
팀플 평면 최종 v6_0
100
AcDbLine
 10
180.537
 20
442.263
 30
0.0
 11
180.541
 21
442.2880000000001
 31
0.0
  0
LINE
  5
558
330
70
100
AcDbEntity
  8
팀플 평면 최종 v6_0
100
AcDbLine
 10
186.6
 20
445.301
 30
0.0
 11
180.5999999999999
 21
445.301
 31
0.0
  0
LINE
  5
559
330
70
100
AcDbEntity
  8
팀플 평면 최종 v6_0
100
AcDbLine
 10
198.617
 20
445.301
 30
0.0
 11
198.6
 21
445.301
 31
0.0
  0
LINE
  5
55A
330
70
100
AcDbEntity
  8
팀플 평면 최종 v6_0
100
AcDbLine
 10
204.582
 20
445.301
 30
0.0
 11
204.529
 21
445.273
 31
0.0
  0
LINE
  5
55B
330
70
100
AcDbEntity
  8
팀플 평면 최종 v6_0
100
AcDbLine
 10
198.67
 20
445.273
 30
0.0
 11
198.617
 21
445.301
 31
0.0
  0
LINE
  5
55C
330
70
100
AcDbEntity
  8
팀플 평면 최종 v6_0
100
AcDbLine
 10
192.541
 20
442.2880000000001
 30
0.0
 11
192.509
 21
442.302
 31
0.0
  0
LINE
  5
55D
330
70
100
AcDbEntity
  8
팀플 평면 최종 v6_0
100
AcDbLine
 10
210.67
 20
445.273
 30
0.0
 11
210.616
 21
445.301
 31
0.0
  0
LINE
  5
55E
330
70
100
AcDbEntity
  8
팀플 평면 최종 v6_0
100
AcDbLine
 10
192.528
 20
445.273
 30
0.0
 11
192.5
 21
445.22
 31
0.0
  0
LINE
  5
55F
330
70
100
AcDbEntity
  8
팀플 평면 최종 v6_0
100
AcDbLine
 10
192.537
 20
442.263
 30
0.0
 11
192.541
 21
442.2880000000001
 31
0.0
  0
LINE
  5
560
330
70
100
AcDbEntity
  8
팀플 평면 최종 v6_0
100
AcDbLine
 10
204.5
 20
442.2919999999999
 30
0.0
 11
204.513
 21
442.26
 31
0.0
  0
LINE
  5
561
330
70
100
AcDbEntity
  8
팀플 평면 최종 v6_0
100
AcDbLine
 10
192.6
 20
445.301
 30
0.0
 11
192.582
 21
445.301
 31
0.0
  0
LINE
  5
562
330
70
100
AcDbEntity
  8
팀플 평면 최종 v6_0
100
AcDbLine
 10
204.541
 20
442.2880000000001
 30
0.0
 11
204.509
 21
442.302
 31
0.0
  0
LINE
  5
563
330
70
100
AcDbEntity
  8
팀플 평면 최종 v6_0
100
AcDbLine
 10
198.662
 20
442.263
 30
0.0
 11
198.684
 21
442.26
 31
0.0
  0
LINE
  5
564
330
70
100
AcDbEntity
  8
팀플 평면 최종 v6_0
100
AcDbLine
 10
156.5
 20
445.198
 30
0.0
 11
156.5
 21
442.302
 31
0.0
  0
LINE
  5
565
330
70
100
AcDbEntity
  8
팀플 평면 최종 v6_0
100
AcDbLine
 10
198.699
 20
445.198
 30
0.0
 11
198.699
 21
445.22
 31
0.0
  0
LINE
  5
566
330
70
100
AcDbEntity
  8
팀플 평면 최종 v6_0
100
AcDbLine
 10
204.5
 20
442.302
 30
0.0
 11
204.5
 21
442.2919999999999
 31
0.0
  0
LINE
  5
567
330
70
100
AcDbEntity
  8
팀플 평면 최종 v6_0
100
AcDbLine
 10
204.537
 20
442.263
 30
0.0
 11
204.541
 21
442.2880000000001
 31
0.0
  0
LINE
  5
568
330
70
100
AcDbEntity
  8
팀플 평면 최종 v6_0
100
AcDbLine
 10
192.5
 20
442.2919999999999
 30
0.0
 11
192.513
 21
442.26
 31
0.0
  0
LINE
  5
569
330
70
100
AcDbEntity
  8
팀플 평면 최종 v6_0
100
AcDbLine
 10
174.662
 20
442.263
 30
0.0
 11
174.686
 21
442.26
 31
0.0
  0
LINE
  5
56A
330
70
100
AcDbEntity
  8
팀플 평면 최종 v6_0
100
AcDbLine
 10
192.582
 20
445.301
 30
0.0
 11
192.528
 21
445.273
 31
0.0
  0
LINE
  5
56B
330
70
100
AcDbEntity
  8
팀플 평면 최종 v6_0
100
AcDbLine
 10
210.701
 20
445.22
 30
0.0
 11
210.67
 21
445.273
 31
0.0
  0
LINE
  5
56C
330
70
100
AcDbEntity
  8
팀플 평면 최종 v6_0
100
AcDbLine
 10
144.5
 20
445.22
 30
0.0
 11
144.5
 21
445.1979999999999
 31
0.0
  0
LINE
  5
56D
330
70
100
AcDbEntity
  8
팀플 평면 최종 v6_0
100
AcDbLine
 10
168.513
 20
442.26
 30
0.0
 11
168.537
 21
442.263
 31
0.0
  0
LINE
  5
56E
330
70
100
AcDbEntity
  8
팀플 평면 최종 v6_0
100
AcDbLine
 10
150.7
 20
442.302
 30
0.0
 11
150.688
 21
442.302
 31
0.0
  0
LINE
  5
56F
330
70
100
AcDbEntity
  8
팀플 평면 최종 v6_0
100
AcDbLine
 10
162.688
 20
442.302
 30
0.0
 11
162.657
 21
442.2880000000001
 31
0.0
  0
LINE
  5
570
330
70
100
AcDbEntity
  8
팀플 평면 최종 v6_0
100
AcDbLine
 10
162.699
 20
442.302
 30
0.0
 11
162.688
 21
442.302
 31
0.0
  0
LINE
  5
571
330
70
100
AcDbEntity
  8
팀플 평면 최종 v6_0
100
AcDbLine
 10
162.699
 20
445.198
 30
0.0
 11
162.699
 21
445.22
 31
0.0
  0
LINE
  5
572
330
70
100
AcDbEntity
  8
팀플 평면 최종 v6_0
100
AcDbLine
 10
168.509
 20
442.302
 30
0.0
 11
168.5
 21
442.302
 31
0.0
  0
LINE
  5
573
330
70
100
AcDbEntity
  8
팀플 평면 최종 v6_0
100
AcDbLine
 10
150.6
 20
445.301
 30
0.0
 11
144.6
 21
445.301
 31
0.0
  0
LINE
  5
574
330
70
100
AcDbEntity
  8
팀플 평면 최종 v6_0
100
AcDbLine
 10
174.69
 20
442.302
 30
0.0
 11
174.6579999999999
 21
442.2880000000001
 31
0.0
  0
LINE
  5
575
330
70
100
AcDbEntity
  8
팀플 평면 최종 v6_0
100
AcDbLine
 10
144.529
 20
445.273
 30
0.0
 11
144.5
 21
445.22
 31
0.0
  0
LINE
  5
576
330
70
100
AcDbEntity
  8
팀플 평면 최종 v6_0
100
AcDbLine
 10
156.537
 20
442.263
 30
0.0
 11
156.541
 21
442.2880000000001
 31
0.0
  0
LINE
  5
577
330
70
100
AcDbEntity
  8
팀플 평면 최종 v6_0
100
AcDbLine
 10
174.617
 20
445.301
 30
0.0
 11
174.6
 21
445.301
 31
0.0
  0
LINE
  5
578
330
70
100
AcDbEntity
  8
팀플 평면 최종 v6_0
100
AcDbLine
 10
150.662
 20
442.263
 30
0.0
 11
150.684
 21
442.26
 31
0.0
  0
LINE
  5
579
330
70
100
AcDbEntity
  8
팀플 평면 최종 v6_0
100
AcDbLine
 10
156.582
 20
445.301
 30
0.0
 11
156.529
 21
445.273
 31
0.0
  0
LINE
  5
57A
330
70
100
AcDbEntity
  8
팀플 평면 최종 v6_0
100
AcDbLine
 10
156.509
 20
442.302
 30
0.0
 11
156.5
 21
442.302
 31
0.0
  0
LINE
  5
57B
330
70
100
AcDbEntity
  8
팀플 평면 최종 v6_0
100
AcDbLine
 10
162.6
 20
445.301
 30
0.0
 11
156.6
 21
445.301
 31
0.0
  0
LINE
  5
57C
330
70
100
AcDbEntity
  8
팀플 평면 최종 v6_0
100
AcDbLine
 10
150.617
 20
445.301
 30
0.0
 11
150.6
 21
445.301
 31
0.0
  0
LINE
  5
57D
330
70
100
AcDbEntity
  8
팀플 평면 최종 v6_0
100
AcDbLine
 10
156.6
 20
445.301
 30
0.0
 11
156.582
 21
445.301
 31
0.0
  0
LINE
  5
57E
330
70
100
AcDbEntity
  8
팀플 평면 최종 v6_0
100
AcDbLine
 10
162.662
 20
442.263
 30
0.0
 11
162.684
 21
442.26
 31
0.0
  0
LINE
  5
57F
330
70
100
AcDbEntity
  8
팀플 평면 최종 v6_0
100
AcDbLine
 10
168.6
 20
445.301
 30
0.0
 11
168.582
 21
445.301
 31
0.0
  0
LINE
  5
580
330
70
100
AcDbEntity
  8
팀플 평면 최종 v6_0
100
AcDbLine
 10
156.529
 20
445.273
 30
0.0
 11
156.5
 21
445.22
 31
0.0
  0
LINE
  5
581
330
70
100
AcDbEntity
  8
팀플 평면 최종 v6_0
100
AcDbLine
 10
162.617
 20
445.301
 30
0.0
 11
162.6
 21
445.301
 31
0.0
  0
LINE
  5
582
330
70
100
AcDbEntity
  8
팀플 평면 최종 v6_0
100
AcDbLine
 10
156.5
 20
442.2919999999999
 30
0.0
 11
156.513
 21
442.26
 31
0.0
  0
LINE
  5
583
330
70
100
AcDbEntity
  8
팀플 평면 최종 v6_0
100
AcDbLine
 10
156.541
 20
442.2880000000001
 30
0.0
 11
156.509
 21
442.302
 31
0.0
  0
LINE
  5
584
330
70
100
AcDbEntity
  8
팀플 평면 최종 v6_0
100
AcDbLine
 10
162.684
 20
442.26
 30
0.0
 11
162.699
 21
442.2919999999999
 31
0.0
  0
LINE
  5
585
330
70
100
AcDbEntity
  8
팀플 평면 최종 v6_0
100
AcDbLine
 10
174.686
 20
442.26
 30
0.0
 11
174.7009999999999
 21
442.2919999999999
 31
0.0
  0
LINE
  5
586
330
70
100
AcDbEntity
  8
팀플 평면 최종 v6_0
100
AcDbLine
 10
168.582
 20
445.301
 30
0.0
 11
168.529
 21
445.273
 31
0.0
  0
LINE
  5
587
330
70
100
AcDbEntity
  8
팀플 평면 최종 v6_0
100
AcDbLine
 10
162.67
 20
445.273
 30
0.0
 11
162.617
 21
445.301
 31
0.0
  0
LINE
  5
588
330
70
100
AcDbEntity
  8
팀플 평면 최종 v6_0
100
AcDbLine
 10
150.657
 20
442.2880000000001
 30
0.0
 11
150.662
 21
442.263
 31
0.0
  0
LINE
  5
589
330
70
100
AcDbEntity
  8
팀플 평면 최종 v6_0
100
AcDbLine
 10
156.513
 20
442.26
 30
0.0
 11
156.537
 21
442.263
 31
0.0
  0
LINE
  5
58A
330
70
100
AcDbEntity
  8
팀플 평면 최종 v6_0
100
AcDbLine
 10
174.6
 20
445.301
 30
0.0
 11
168.6
 21
445.301
 31
0.0
  0
LINE
  5
58B
330
70
100
AcDbEntity
  8
팀플 평면 최종 v6_0
100
AcDbLine
 10
168.529
 20
445.273
 30
0.0
 11
168.5
 21
445.22
 31
0.0
  0
LINE
  5
58C
330
70
100
AcDbEntity
  8
팀플 평면 최종 v6_0
100
AcDbLine
 10
156.5
 20
442.302
 30
0.0
 11
156.5
 21
442.2919999999999
 31
0.0
  0
LINE
  5
58D
330
70
100
AcDbEntity
  8
팀플 평면 최종 v6_0
100
AcDbLine
 10
168.541
 20
442.2880000000001
 30
0.0
 11
168.509
 21
442.302
 31
0.0
  0
LINE
  5
58E
330
70
100
AcDbEntity
  8
팀플 평면 최종 v6_0
100
AcDbLine
 10
168.5
 20
445.198
 30
0.0
 11
168.5
 21
442.302
 31
0.0
  0
LINE
  5
58F
330
70
100
AcDbEntity
  8
팀플 평면 최종 v6_0
100
AcDbLine
 10
150.671
 20
445.273
 30
0.0
 11
150.617
 21
445.301
 31
0.0
  0
LINE
  5
590
330
70
100
AcDbEntity
  8
팀플 평면 최종 v6_0
100
AcDbLine
 10
174.701
 20
445.198
 30
0.0
 11
174.701
 21
445.22
 31
0.0
  0
LINE
  5
591
330
70
100
AcDbEntity
  8
팀플 평면 최종 v6_0
100
AcDbLine
 10
174.701
 20
442.302
 30
0.0
 11
174.701
 21
445.198
 31
0.0
  0
LINE
  5
592
330
70
100
AcDbEntity
  8
팀플 평면 최종 v6_0
100
AcDbLine
 10
210.6
 20
445.301
 30
0.0
 11
204.6
 21
445.301
 31
0.0
  0
LINE
  5
593
330
70
100
AcDbEntity
  8
팀플 평면 최종 v6_0
100
AcDbLine
 10
144.582
 20
445.301
 30
0.0
 11
144.529
 21
445.273
 31
0.0
  0
LINE
  5
594
330
70
100
AcDbEntity
  8
팀플 평면 최종 v6_0
100
AcDbLine
 10
168.5
 20
442.302
 30
0.0
 11
168.5
 21
442.2919999999999
 31
0.0
  0
LINE
  5
595
330
70
100
AcDbEntity
  8
팀플 평면 최종 v6_0
100
AcDbLine
 10
150.688
 20
442.302
 30
0.0
 11
150.657
 21
442.2880000000001
 31
0.0
  0
LINE
  5
596
330
70
100
AcDbEntity
  8
팀플 평면 최종 v6_0
100
AcDbLine
 10
174.6579999999999
 20
442.2880000000001
 30
0.0
 11
174.662
 21
442.263
 31
0.0
  0
LINE
  5
597
330
70
100
AcDbEntity
  8
팀플 평면 최종 v6_0
100
AcDbLine
 10
162.699
 20
442.2919999999999
 30
0.0
 11
162.699
 21
442.302
 31
0.0
  0
LINE
  5
598
330
70
100
AcDbEntity
  8
팀플 평면 최종 v6_0
100
AcDbLine
 10
168.5
 20
445.22
 30
0.0
 11
168.5
 21
445.1979999999999
 31
0.0
  0
LINE
  5
599
330
70
100
AcDbEntity
  8
팀플 평면 최종 v6_0
100
AcDbLine
 10
174.701
 20
442.2919999999999
 30
0.0
 11
174.701
 21
442.302
 31
0.0
  0
LINE
  5
59A
330
70
100
AcDbEntity
  8
팀플 평면 최종 v6_0
100
AcDbLine
 10
168.5
 20
442.302
 30
0.0
 11
162.699
 21
442.302
 31
0.0
  0
LINE
  5
59B
330
70
100
AcDbEntity
  8
팀플 평면 최종 v6_0
100
AcDbLine
 10
156.5
 20
445.22
 30
0.0
 11
156.5
 21
445.1979999999999
 31
0.0
  0
LINE
  5
59C
330
70
100
AcDbEntity
  8
팀플 평면 최종 v6_0
100
AcDbLine
 10
168.5
 20
442.2919999999999
 30
0.0
 11
168.513
 21
442.26
 31
0.0
  0
LINE
  5
59D
330
70
100
AcDbEntity
  8
팀플 평면 최종 v6_0
100
AcDbLine
 10
156.5
 20
442.302
 30
0.0
 11
150.7
 21
442.302
 31
0.0
  0
LINE
  5
59E
330
70
100
AcDbEntity
  8
팀플 평면 최종 v6_0
100
AcDbLine
 10
150.7
 20
445.22
 30
0.0
 11
150.671
 21
445.273
 31
0.0
  0
LINE
  5
59F
330
70
100
AcDbEntity
  8
팀플 평면 최종 v6_0
100
AcDbLine
 10
174.671
 20
445.273
 30
0.0
 11
174.617
 21
445.301
 31
0.0
  0
LINE
  5
5A0
330
70
100
AcDbEntity
  8
팀플 평면 최종 v6_0
100
AcDbLine
 10
192.5
 20
442.302
 30
0.0
 11
192.5
 21
442.2919999999999
 31
0.0
  0
LINE
  5
5A1
330
70
100
AcDbEntity
  8
팀플 평면 최종 v6_0
100
AcDbLine
 10
174.701
 20
442.302
 30
0.0
 11
174.69
 21
442.302
 31
0.0
  0
LINE
  5
5A2
330
70
100
AcDbEntity
  8
팀플 평면 최종 v6_0
100
AcDbLine
 10
162.657
 20
442.2880000000001
 30
0.0
 11
162.662
 21
442.263
 31
0.0
  0
LINE
  5
5A3
330
70
100
AcDbEntity
  8
팀플 평면 최종 v6_0
100
AcDbLine
 10
162.699
 20
445.22
 30
0.0
 11
162.67
 21
445.273
 31
0.0
  0
LINE
  5
5A4
330
70
100
AcDbEntity
  8
팀플 평면 최종 v6_0
100
AcDbLine
 10
138.7
 20
445.22
 30
0.0
 11
138.671
 21
445.273
 31
0.0
  0
LINE
  5
5A5
330
70
100
AcDbEntity
  8
팀플 평면 최종 v6_0
100
AcDbLine
 10
120.5
 20
445.198
 30
0.0
 11
120.5
 21
442.302
 31
0.0
  0
LINE
  5
5A6
330
70
100
AcDbEntity
  8
팀플 평면 최종 v6_0
100
AcDbLine
 10
168.537
 20
442.263
 30
0.0
 11
168.541
 21
442.2880000000001
 31
0.0
  0
LINE
  5
5A7
330
70
100
AcDbEntity
  8
팀플 평면 최종 v6_0
100
AcDbLine
 10
126.699
 20
445.198
 30
0.0
 11
126.699
 21
445.22
 31
0.0
  0
LINE
  5
5A8
330
70
100
AcDbEntity
  8
팀플 평면 최종 v6_0
100
AcDbLine
 10
120.5
 20
445.22
 30
0.0
 11
120.5
 21
445.1979999999999
 31
0.0
  0
LINE
  5
5A9
330
70
100
AcDbEntity
  8
팀플 평면 최종 v6_0
100
AcDbLine
 10
138.7
 20
442.2919999999999
 30
0.0
 11
138.7
 21
442.302
 31
0.0
  0
LINE
  5
5AA
330
70
100
AcDbEntity
  8
팀플 평면 최종 v6_0
100
AcDbLine
 10
174.701
 20
445.22
 30
0.0
 11
174.671
 21
445.273
 31
0.0
  0
LINE
  5
5AB
330
70
100
AcDbEntity
  8
팀플 평면 최종 v6_0
100
AcDbLine
 10
120.529
 20
445.273
 30
0.0
 11
120.5
 21
445.22
 31
0.0
  0
LINE
  5
5AC
330
70
100
AcDbEntity
  8
팀플 평면 최종 v6_0
100
AcDbLine
 10
144.6
 20
445.301
 30
0.0
 11
144.582
 21
445.301
 31
0.0
  0
LINE
  5
5AD
330
70
100
AcDbEntity
  8
팀플 평면 최종 v6_0
100
AcDbLine
 10
138.689
 20
442.302
 30
0.0
 11
138.657
 21
442.2880000000001
 31
0.0
  0
LINE
  5
5AE
330
70
100
AcDbEntity
  8
팀플 평면 최종 v6_0
100
AcDbLine
 10
114.7
 20
442.2919999999999
 30
0.0
 11
114.7
 21
442.302
 31
0.0
  0
LINE
  5
5AF
330
70
100
AcDbEntity
  8
팀플 평면 최종 v6_0
100
AcDbLine
 10
132.537
 20
442.263
 30
0.0
 11
132.541
 21
442.2880000000001
 31
0.0
  0
LINE
  5
5B0
330
70
100
AcDbEntity
  8
팀플 평면 최종 v6_0
100
AcDbLine
 10
114.7
 20
442.302
 30
0.0
 11
114.7
 21
445.198
 31
0.0
  0
LINE
  5
5B1
330
70
100
AcDbEntity
  8
팀플 평면 최종 v6_0
100
AcDbLine
 10
150.684
 20
442.26
 30
0.0
 11
150.7
 21
442.2919999999999
 31
0.0
  0
LINE
  5
5B2
330
70
100
AcDbEntity
  8
팀플 평면 최종 v6_0
100
AcDbLine
 10
114.689
 20
442.302
 30
0.0
 11
114.657
 21
442.2880000000001
 31
0.0
  0
LINE
  5
5B3
330
70
100
AcDbEntity
  8
팀플 평면 최종 v6_0
100
AcDbLine
 10
138.7
 20
442.302
 30
0.0
 11
138.7
 21
445.198
 31
0.0
  0
LINE
  5
5B4
330
70
100
AcDbEntity
  8
팀플 평면 최종 v6_0
100
AcDbLine
 10
132.541
 20
442.2880000000001
 30
0.0
 11
132.509
 21
442.302
 31
0.0
  0
LINE
  5
5B5
330
70
100
AcDbEntity
  8
팀플 평면 최종 v6_0
100
AcDbLine
 10
120.6
 20
445.301
 30
0.0
 11
120.583
 21
445.301
 31
0.0
  0
LINE
  5
5B6
330
70
100
AcDbEntity
  8
팀플 평면 최종 v6_0
100
AcDbLine
 10
120.5
 20
442.302
 30
0.0
 11
120.5
 21
442.2919999999999
 31
0.0
  0
LINE
  5
5B7
330
70
100
AcDbEntity
  8
팀플 평면 최종 v6_0
100
AcDbLine
 10
120.583
 20
445.301
 30
0.0
 11
120.529
 21
445.273
 31
0.0
  0
LINE
  5
5B8
330
70
100
AcDbEntity
  8
팀플 평면 최종 v6_0
100
AcDbLine
 10
132.514
 20
442.26
 30
0.0
 11
132.537
 21
442.263
 31
0.0
  0
LINE
  5
5B9
330
70
100
AcDbEntity
  8
팀플 평면 최종 v6_0
100
AcDbLine
 10
144.509
 20
442.302
 30
0.0
 11
144.5
 21
442.302
 31
0.0
  0
LINE
  5
5BA
330
70
100
AcDbEntity
  8
팀플 평면 최종 v6_0
100
AcDbLine
 10
150.7
 20
442.302
 30
0.0
 11
150.7
 21
445.198
 31
0.0
  0
LINE
  5
5BB
330
70
100
AcDbEntity
  8
팀플 평면 최종 v6_0
100
AcDbLine
 10
126.6
 20
445.301
 30
0.0
 11
120.6
 21
445.301
 31
0.0
  0
LINE
  5
5BC
330
70
100
AcDbEntity
  8
팀플 평면 최종 v6_0
100
AcDbLine
 10
126.671
 20
445.273
 30
0.0
 11
126.617
 21
445.301
 31
0.0
  0
LINE
  5
5BD
330
70
100
AcDbEntity
  8
팀플 평면 최종 v6_0
100
AcDbLine
 10
114.685
 20
442.26
 30
0.0
 11
114.7
 21
442.2919999999999
 31
0.0
  0
LINE
  5
5BE
330
70
100
AcDbEntity
  8
팀플 평면 최종 v6_0
100
AcDbLine
 10
132.5
 20
442.2919999999999
 30
0.0
 11
132.514
 21
442.26
 31
0.0
  0
LINE
  5
5BF
330
70
100
AcDbEntity
  8
팀플 평면 최종 v6_0
100
AcDbLine
 10
120.537
 20
442.263
 30
0.0
 11
120.541
 21
442.2880000000001
 31
0.0
  0
LINE
  5
5C0
330
70
100
AcDbEntity
  8
팀플 평면 최종 v6_0
100
AcDbLine
 10
138.6
 20
445.301
 30
0.0
 11
132.6
 21
445.301
 31
0.0
  0
LINE
  5
5C1
330
70
100
AcDbEntity
  8
팀플 평면 최종 v6_0
100
AcDbLine
 10
138.7
 20
442.302
 30
0.0
 11
138.689
 21
442.302
 31
0.0
  0
LINE
  5
5C2
330
70
100
AcDbEntity
  8
팀플 평면 최종 v6_0
100
AcDbLine
 10
138.684
 20
442.26
 30
0.0
 11
138.7
 21
442.2919999999999
 31
0.0
  0
LINE
  5
5C3
330
70
100
AcDbEntity
  8
팀플 평면 최종 v6_0
100
AcDbLine
 10
138.662
 20
442.263
 30
0.0
 11
138.684
 21
442.26
 31
0.0
  0
LINE
  5
5C4
330
70
100
AcDbEntity
  8
팀플 평면 최종 v6_0
100
AcDbLine
 10
144.5
 20
442.302
 30
0.0
 11
138.7
 21
442.302
 31
0.0
  0
LINE
  5
5C5
330
70
100
AcDbEntity
  8
팀플 평면 최종 v6_0
100
AcDbLine
 10
132.5
 20
445.198
 30
0.0
 11
132.5
 21
442.302
 31
0.0
  0
LINE
  5
5C6
330
70
100
AcDbEntity
  8
팀플 평면 최종 v6_0
100
AcDbLine
 10
150.7
 20
442.2919999999999
 30
0.0
 11
150.7
 21
442.302
 31
0.0
  0
LINE
  5
5C7
330
70
100
AcDbEntity
  8
팀플 평면 최종 v6_0
100
AcDbLine
 10
120.513
 20
442.26
 30
0.0
 11
120.537
 21
442.263
 31
0.0
  0
LINE
  5
5C8
330
70
100
AcDbEntity
  8
팀플 평면 최종 v6_0
100
AcDbLine
 10
126.688
 20
442.302
 30
0.0
 11
126.657
 21
442.2880000000001
 31
0.0
  0
LINE
  5
5C9
330
70
100
AcDbEntity
  8
팀플 평면 최종 v6_0
100
AcDbLine
 10
162.699
 20
442.302
 30
0.0
 11
162.699
 21
445.198
 31
0.0
  0
LINE
  5
5CA
330
70
100
AcDbEntity
  8
팀플 평면 최종 v6_0
100
AcDbLine
 10
144.514
 20
442.26
 30
0.0
 11
144.537
 21
442.263
 31
0.0
  0
LINE
  5
5CB
330
70
100
AcDbEntity
  8
팀플 평면 최종 v6_0
100
AcDbLine
 10
114.7
 20
445.198
 30
0.0
 11
114.7
 21
445.22
 31
0.0
  0
LINE
  5
5CC
330
70
100
AcDbEntity
  8
팀플 평면 최종 v6_0
100
AcDbLine
 10
138.657
 20
442.2880000000001
 30
0.0
 11
138.662
 21
442.263
 31
0.0
  0
LINE
  5
5CD
330
70
100
AcDbEntity
  8
팀플 평면 최종 v6_0
100
AcDbLine
 10
126.699
 20
442.302
 30
0.0
 11
126.688
 21
442.302
 31
0.0
  0
LINE
  5
5CE
330
70
100
AcDbEntity
  8
팀플 평면 최종 v6_0
100
AcDbLine
 10
120.5
 20
442.2919999999999
 30
0.0
 11
120.513
 21
442.26
 31
0.0
  0
LINE
  5
5CF
330
70
100
AcDbEntity
  8
팀플 평면 최종 v6_0
100
AcDbLine
 10
120.51
 20
442.302
 30
0.0
 11
120.5
 21
442.302
 31
0.0
  0
LINE
  5
5D0
330
70
100
AcDbEntity
  8
팀플 평면 최종 v6_0
100
AcDbLine
 10
132.582
 20
445.301
 30
0.0
 11
132.529
 21
445.273
 31
0.0
  0
LINE
  5
5D1
330
70
100
AcDbEntity
  8
팀플 평면 최종 v6_0
100
AcDbLine
 10
126.662
 20
442.263
 30
0.0
 11
126.684
 21
442.26
 31
0.0
  0
LINE
  5
5D2
330
70
100
AcDbEntity
  8
팀플 평면 최종 v6_0
100
AcDbLine
 10
114.7
 20
442.302
 30
0.0
 11
114.689
 21
442.302
 31
0.0
  0
LINE
  5
5D3
330
70
100
AcDbEntity
  8
팀플 평면 최종 v6_0
100
AcDbLine
 10
126.699
 20
442.2919999999999
 30
0.0
 11
126.699
 21
442.302
 31
0.0
  0
LINE
  5
5D4
330
70
100
AcDbEntity
  8
팀플 평면 최종 v6_0
100
AcDbLine
 10
132.5
 20
445.22
 30
0.0
 11
132.5
 21
445.1979999999999
 31
0.0
  0
LINE
  5
5D5
330
70
100
AcDbEntity
  8
팀플 평면 최종 v6_0
100
AcDbLine
 10
144.5
 20
445.198
 30
0.0
 11
144.5
 21
442.302
 31
0.0
  0
LINE
  5
5D6
330
70
100
AcDbEntity
  8
팀플 평면 최종 v6_0
100
AcDbLine
 10
126.699
 20
445.22
 30
0.0
 11
126.671
 21
445.273
 31
0.0
  0
LINE
  5
5D7
330
70
100
AcDbEntity
  8
팀플 평면 최종 v6_0
100
AcDbLine
 10
120.541
 20
442.2880000000001
 30
0.0
 11
120.51
 21
442.302
 31
0.0
  0
LINE
  5
5D8
330
70
100
AcDbEntity
  8
팀플 평면 최종 v6_0
100
AcDbLine
 10
150.7
 20
445.198
 30
0.0
 11
150.7
 21
445.22
 31
0.0
  0
LINE
  5
5D9
330
70
100
AcDbEntity
  8
팀플 평면 최종 v6_0
100
AcDbLine
 10
144.5
 20
442.2919999999999
 30
0.0
 11
144.514
 21
442.26
 31
0.0
  0
LINE
  5
5DA
330
70
100
AcDbEntity
  8
팀플 평면 최종 v6_0
100
AcDbLine
 10
126.699
 20
442.302
 30
0.0
 11
126.699
 21
445.198
 31
0.0
  0
LINE
  5
5DB
330
70
100
AcDbEntity
  8
팀플 평면 최종 v6_0
100
AcDbLine
 10
132.5
 20
442.302
 30
0.0
 11
132.5
 21
442.2919999999999
 31
0.0
  0
LINE
  5
5DC
330
70
100
AcDbEntity
  8
팀플 평면 최종 v6_0
100
AcDbLine
 10
114.657
 20
442.2880000000001
 30
0.0
 11
114.662
 21
442.263
 31
0.0
  0
LINE
  5
5DD
330
70
100
AcDbEntity
  8
팀플 평면 최종 v6_0
100
AcDbLine
 10
84.5827
 20
445.301
 30
0.0
 11
84.5287
 21
445.273
 31
0.0
  0
LINE
  5
5DE
330
70
100
AcDbEntity
  8
팀플 평면 최종 v6_0
100
AcDbLine
 10
120.5
 20
442.302
 30
0.0
 11
114.7
 21
442.302
 31
0.0
  0
LINE
  5
5DF
330
70
100
AcDbEntity
  8
팀플 평면 최종 v6_0
100
AcDbLine
 10
96.49990000000002
 20
442.2919999999999
 30
0.0
 11
96.5137
 21
442.26
 31
0.0
  0
LINE
  5
5E0
330
70
100
AcDbEntity
  8
팀플 평면 최종 v6_0
100
AcDbLine
 10
102.6
 20
445.301
 30
0.0
 11
96.60040000000002
 21
445.301
 31
0.0
  0
LINE
  5
5E1
330
70
100
AcDbEntity
  8
팀플 평면 최종 v6_0
100
AcDbLine
 10
90.69990000000002
 20
442.302
 30
0.0
 11
90.69990000000002
 21
445.198
 31
0.0
  0
LINE
  5
5E2
330
70
100
AcDbEntity
  8
팀플 평면 최종 v6_0
100
AcDbLine
 10
138.671
 20
445.273
 30
0.0
 11
138.617
 21
445.301
 31
0.0
  0
LINE
  5
5E3
330
70
100
AcDbEntity
  8
팀플 평면 최종 v6_0
100
AcDbLine
 10
90.68859999999999
 20
442.302
 30
0.0
 11
90.6568
 21
442.2880000000001
 31
0.0
  0
LINE
  5
5E4
330
70
100
AcDbEntity
  8
팀플 평면 최종 v6_0
100
AcDbLine
 10
132.5
 20
442.302
 30
0.0
 11
126.699
 21
442.302
 31
0.0
  0
LINE
  5
5E5
330
70
100
AcDbEntity
  8
팀플 평면 최종 v6_0
100
AcDbLine
 10
132.529
 20
445.273
 30
0.0
 11
132.5
 21
445.22
 31
0.0
  0
LINE
  5
5E6
330
70
100
AcDbEntity
  8
팀플 평면 최종 v6_0
100
AcDbLine
 10
90.6568
 20
442.2880000000001
 30
0.0
 11
90.6625
 21
442.263
 31
0.0
  0
LINE
  5
5E7
330
70
100
AcDbEntity
  8
팀플 평면 최종 v6_0
100
AcDbLine
 10
96.58240000000001
 20
445.301
 30
0.0
 11
96.52880000000003
 21
445.273
 31
0.0
  0
LINE
  5
5E8
330
70
100
AcDbEntity
  8
팀플 평면 최종 v6_0
100
AcDbLine
 10
126.617
 20
445.301
 30
0.0
 11
126.6
 21
445.301
 31
0.0
  0
LINE
  5
5E9
330
70
100
AcDbEntity
  8
팀플 평면 최종 v6_0
100
AcDbLine
 10
132.509
 20
442.302
 30
0.0
 11
132.5
 21
442.302
 31
0.0
  0
LINE
  5
5EA
330
70
100
AcDbEntity
  8
팀플 평면 최종 v6_0
100
AcDbLine
 10
96.5094
 20
442.302
 30
0.0
 11
96.4999
 21
442.302
 31
0.0
  0
LINE
  5
5EB
330
70
100
AcDbEntity
  8
팀플 평면 최종 v6_0
100
AcDbLine
 10
138.7
 20
445.198
 30
0.0
 11
138.7
 21
445.22
 31
0.0
  0
LINE
  5
5EC
330
70
100
AcDbEntity
  8
팀플 평면 최종 v6_0
100
AcDbLine
 10
84.4998
 20
442.302
 30
0.0
 11
84.4998
 21
442.2919999999999
 31
0.0
  0
LINE
  5
5ED
330
70
100
AcDbEntity
  8
팀플 평면 최종 v6_0
100
AcDbLine
 10
96.49990000000002
 20
442.302
 30
0.0
 11
96.49990000000002
 21
442.2919999999999
 31
0.0
  0
LINE
  5
5EE
330
70
100
AcDbEntity
  8
팀플 평면 최종 v6_0
100
AcDbLine
 10
84.4998
 20
445.22
 30
0.0
 11
84.4998
 21
445.1979999999999
 31
0.0
  0
LINE
  5
5EF
330
70
100
AcDbEntity
  8
팀플 평면 최종 v6_0
100
AcDbLine
 10
114.601
 20
445.301
 30
0.0
 11
108.601
 21
445.301
 31
0.0
  0
LINE
  5
5F0
330
70
100
AcDbEntity
  8
팀플 평면 최종 v6_0
100
AcDbLine
 10
108.541
 20
442.2880000000001
 30
0.0
 11
108.51
 21
442.302
 31
0.0
  0
LINE
  5
5F1
330
70
100
AcDbEntity
  8
팀플 평면 최종 v6_0
100
AcDbLine
 10
144.541
 20
442.2880000000001
 30
0.0
 11
144.509
 21
442.302
 31
0.0
  0
LINE
  5
5F2
330
70
100
AcDbEntity
  8
팀플 평면 최종 v6_0
100
AcDbLine
 10
108.529
 20
445.273
 30
0.0
 11
108.5
 21
445.22
 31
0.0
  0
LINE
  5
5F3
330
70
100
AcDbEntity
  8
팀플 평면 최종 v6_0
100
AcDbLine
 10
114.662
 20
442.263
 30
0.0
 11
114.685
 21
442.26
 31
0.0
  0
LINE
  5
5F4
330
70
100
AcDbEntity
  8
팀플 평면 최종 v6_0
100
AcDbLine
 10
126.684
 20
442.26
 30
0.0
 11
126.699
 21
442.2919999999999
 31
0.0
  0
LINE
  5
5F5
330
70
100
AcDbEntity
  8
팀플 평면 최종 v6_0
100
AcDbLine
 10
108.601
 20
445.301
 30
0.0
 11
108.583
 21
445.301
 31
0.0
  0
LINE
  5
5F6
330
70
100
AcDbEntity
  8
팀플 평면 최종 v6_0
100
AcDbLine
 10
84.51359999999999
 20
442.26
 30
0.0
 11
84.53720000000002
 21
442.263
 31
0.0
  0
LINE
  5
5F7
330
70
100
AcDbEntity
  8
팀플 평면 최종 v6_0
100
AcDbLine
 10
96.60040000000002
 20
445.301
 30
0.0
 11
96.58240000000001
 21
445.301
 31
0.0
  0
LINE
  5
5F8
330
70
100
AcDbEntity
  8
팀플 평면 최종 v6_0
100
AcDbLine
 10
126.657
 20
442.2880000000001
 30
0.0
 11
126.662
 21
442.263
 31
0.0
  0
LINE
  5
5F9
330
70
100
AcDbEntity
  8
팀플 평면 최종 v6_0
100
AcDbLine
 10
138.617
 20
445.301
 30
0.0
 11
138.6
 21
445.301
 31
0.0
  0
LINE
  5
5FA
330
70
100
AcDbEntity
  8
팀플 평면 최종 v6_0
100
AcDbLine
 10
90.69990000000002
 20
445.198
 30
0.0
 11
90.69990000000002
 21
445.22
 31
0.0
  0
LINE
  5
5FB
330
70
100
AcDbEntity
  8
팀플 평면 최종 v6_0
100
AcDbLine
 10
90.60039999999998
 20
445.301
 30
0.0
 11
84.60069999999999
 21
445.301
 31
0.0
  0
LINE
  5
5FC
330
70
100
AcDbEntity
  8
팀플 평면 최종 v6_0
100
AcDbLine
 10
84.4998
 20
442.2919999999999
 30
0.0
 11
84.51359999999999
 21
442.26
 31
0.0
  0
LINE
  5
5FD
330
70
100
AcDbEntity
  8
팀플 평면 최종 v6_0
100
AcDbLine
 10
102.684
 20
442.26
 30
0.0
 11
102.7
 21
442.2919999999999
 31
0.0
  0
LINE
  5
5FE
330
70
100
AcDbEntity
  8
팀플 평면 최종 v6_0
100
AcDbLine
 10
132.6
 20
445.301
 30
0.0
 11
132.582
 21
445.301
 31
0.0
  0
LINE
  5
5FF
330
70
100
AcDbEntity
  8
팀플 평면 최종 v6_0
100
AcDbLine
 10
96.49990000000002
 20
445.22
 30
0.0
 11
96.49990000000002
 21
445.1979999999999
 31
0.0
  0
LINE
  5
600
330
70
100
AcDbEntity
  8
팀플 평면 최종 v6_0
100
AcDbLine
 10
96.5137
 20
442.26
 30
0.0
 11
96.5369
 21
442.263
 31
0.0
  0
LINE
  5
601
330
70
100
AcDbEntity
  8
팀플 평면 최종 v6_0
100
AcDbLine
 10
96.52880000000003
 20
445.273
 30
0.0
 11
96.49990000000002
 21
445.22
 31
0.0
  0
LINE
  5
602
330
70
100
AcDbEntity
  8
팀플 평면 최종 v6_0
100
AcDbLine
 10
102.671
 20
445.273
 30
0.0
 11
102.617
 21
445.301
 31
0.0
  0
LINE
  5
603
330
70
100
AcDbEntity
  8
팀플 평면 최종 v6_0
100
AcDbLine
 10
96.49990000000002
 20
442.302
 30
0.0
 11
90.69990000000002
 21
442.302
 31
0.0
  0
LINE
  5
604
330
70
100
AcDbEntity
  8
팀플 평면 최종 v6_0
100
AcDbLine
 10
102.617
 20
445.301
 30
0.0
 11
102.6
 21
445.301
 31
0.0
  0
LINE
  5
605
330
70
100
AcDbEntity
  8
팀플 평면 최종 v6_0
100
AcDbLine
 10
108.5
 20
445.198
 30
0.0
 11
108.5
 21
442.302
 31
0.0
  0
LINE
  5
606
330
70
100
AcDbEntity
  8
팀플 평면 최종 v6_0
100
AcDbLine
 10
90.6709
 20
445.273
 30
0.0
 11
90.617
 21
445.301
 31
0.0
  0
LINE
  5
607
330
70
100
AcDbEntity
  8
팀플 평면 최종 v6_0
100
AcDbLine
 10
84.60069999999999
 20
445.301
 30
0.0
 11
84.58270000000002
 21
445.301
 31
0.0
  0
LINE
  5
608
330
70
100
AcDbEntity
  8
팀플 평면 최종 v6_0
100
AcDbLine
 10
90.68470000000003
 20
442.26
 30
0.0
 11
90.69990000000002
 21
442.2919999999999
 31
0.0
  0
LINE
  5
609
330
70
100
AcDbEntity
  8
팀플 평면 최종 v6_0
100
AcDbLine
 10
102.689
 20
442.302
 30
0.0
 11
102.657
 21
442.2880000000001
 31
0.0
  0
LINE
  5
60A
330
70
100
AcDbEntity
  8
팀플 평면 최종 v6_0
100
AcDbLine
 10
90.617
 20
445.301
 30
0.0
 11
90.60039999999998
 21
445.301
 31
0.0
  0
LINE
  5
60B
330
70
100
AcDbEntity
  8
팀플 평면 최종 v6_0
100
AcDbLine
 10
108.5
 20
442.302
 30
0.0
 11
108.5
 21
442.2919999999999
 31
0.0
  0
LINE
  5
60C
330
70
100
AcDbEntity
  8
팀플 평면 최종 v6_0
100
AcDbLine
 10
156.5
 20
228.111
 30
0.0
 11
156.5
 21
228.1
 31
0.0
  0
LINE
  5
60D
330
70
100
AcDbEntity
  8
팀플 평면 최종 v6_0
100
AcDbLine
 10
90.69990000000002
 20
228.1
 30
0.0
 11
90.69990000000002
 21
228.111
 31
0.0
  0
LINE
  5
60E
330
70
100
AcDbEntity
  8
팀플 평면 최종 v6_0
100
AcDbLine
 10
78.69979999999999
 20
225.184
 30
0.0
 11
78.69979999999999
 21
225.2
 31
0.0
  0
LINE
  5
60F
330
70
100
AcDbEntity
  8
팀플 평면 최종 v6_0
100
AcDbLine
 10
126.684
 20
228.142
 30
0.0
 11
126.662
 21
228.138
 31
0.0
  0
LINE
  5
610
330
70
100
AcDbEntity
  8
팀플 평면 최종 v6_0
100
AcDbLine
 10
132.541
 20
228.115
 30
0.0
 11
132.537
 21
228.138
 31
0.0
  0
LINE
  5
611
330
70
100
AcDbEntity
  8
팀플 평면 최종 v6_0
100
AcDbLine
 10
96.52880000000003
 20
225.13
 30
0.0
 11
96.58240000000001
 21
225.1
 31
0.0
  0
LINE
  5
612
330
70
100
AcDbEntity
  8
팀플 평면 최종 v6_0
100
AcDbLine
 10
126.688
 20
228.1
 30
0.0
 11
126.699
 21
228.1
 31
0.0
  0
LINE
  5
613
330
70
100
AcDbEntity
  8
팀플 평면 최종 v6_0
100
AcDbLine
 10
108.5
 20
228.111
 30
0.0
 11
108.5
 21
228.1
 31
0.0
  0
LINE
  5
614
330
70
100
AcDbEntity
  8
팀플 평면 최종 v6_0
100
AcDbLine
 10
126.662
 20
228.138
 30
0.0
 11
126.657
 21
228.115
 31
0.0
  0
LINE
  5
615
330
70
100
AcDbEntity
  8
팀플 평면 최종 v6_0
100
AcDbLine
 10
114.617
 20
225.1
 30
0.0
 11
114.671
 21
225.13
 31
0.0
  0
LINE
  5
616
330
70
100
AcDbEntity
  8
팀플 평면 최종 v6_0
100
AcDbLine
 10
108.514
 20
228.142
 30
0.0
 11
108.5
 21
228.111
 31
0.0
  0
LINE
  5
617
330
70
100
AcDbEntity
  8
팀플 평면 최종 v6_0
100
AcDbLine
 10
126.699
 20
225.184
 30
0.0
 11
126.699
 21
225.2
 31
0.0
  0
LINE
  5
618
330
70
100
AcDbEntity
  8
팀플 평면 최종 v6_0
100
AcDbLine
 10
126.699
 20
225.2
 30
0.0
 11
126.699
 21
228.1
 31
0.0
  0
LINE
  5
619
330
70
100
AcDbEntity
  8
팀플 평면 최종 v6_0
100
AcDbLine
 10
126.617
 20
225.1
 30
0.0
 11
126.671
 21
225.13
 31
0.0
  0
LINE
  5
61A
330
70
100
AcDbEntity
  8
팀플 평면 최종 v6_0
100
AcDbLine
 10
96.58240000000001
 20
225.1
 30
0.0
 11
96.60040000000002
 21
225.1
 31
0.0
  0
LINE
  5
61B
330
70
100
AcDbEntity
  8
팀플 평면 최종 v6_0
100
AcDbLine
 10
138.7
 20
225.184
 30
0.0
 11
138.7
 21
225.2
 31
0.0
  0
LINE
  5
61C
330
70
100
AcDbEntity
  8
팀플 평면 최종 v6_0
100
AcDbLine
 10
132.5
 20
228.1
 30
0.0
 11
132.509
 21
228.1
 31
0.0
  0
LINE
  5
61D
330
70
100
AcDbEntity
  8
팀플 평면 최종 v6_0
100
AcDbLine
 10
162.617
 20
225.1
 30
0.0
 11
162.67
 21
225.13
 31
0.0
  0
LINE
  5
61E
330
70
100
AcDbEntity
  8
팀플 평면 최종 v6_0
100
AcDbLine
 10
84.5414
 20
228.115
 30
0.0
 11
84.53720000000002
 21
228.138
 31
0.0
  0
LINE
  5
61F
330
70
100
AcDbEntity
  8
팀플 평면 최종 v6_0
100
AcDbLine
 10
114.7
 20
225.184
 30
0.0
 11
114.7
 21
225.2
 31
0.0
  0
LINE
  5
620
330
70
100
AcDbEntity
  8
팀플 평면 최종 v6_0
100
AcDbLine
 10
102.617
 20
225.1
 30
0.0
 11
102.671
 21
225.13
 31
0.0
  0
LINE
  5
621
330
70
100
AcDbEntity
  8
팀플 평면 최종 v6_0
100
AcDbLine
 10
114.689
 20
228.1
 30
0.0
 11
114.7
 21
228.1
 31
0.0
  0
LINE
  5
622
330
70
100
AcDbEntity
  8
팀플 평면 최종 v6_0
100
AcDbLine
 10
156.6
 20
225.1
 30
0.0
 11
162.6
 21
225.1
 31
0.0
  0
LINE
  5
623
330
70
100
AcDbEntity
  8
팀플 평면 최종 v6_0
100
AcDbLine
 10
102.7
 20
225.2
 30
0.0
 11
102.7
 21
228.1
 31
0.0
  0
LINE
  5
624
330
70
100
AcDbEntity
  8
팀플 평면 최종 v6_0
100
AcDbLine
 10
96.49990000000002
 20
228.111
 30
0.0
 11
96.49990000000002
 21
228.1
 31
0.0
  0
LINE
  5
625
330
70
100
AcDbEntity
  8
팀플 평면 최종 v6_0
100
AcDbLine
 10
108.51
 20
228.1
 30
0.0
 11
108.541
 21
228.115
 31
0.0
  0
LINE
  5
626
330
70
100
AcDbEntity
  8
팀플 평면 최종 v6_0
100
AcDbLine
 10
114.7
 20
228.1
 30
0.0
 11
120.5
 21
228.1
 31
0.0
  0
LINE
  5
627
330
70
100
AcDbEntity
  8
팀플 평면 최종 v6_0
100
AcDbLine
 10
84.5827
 20
225.1
 30
0.0
 11
84.60069999999999
 21
225.1
 31
0.0
  0
LINE
  5
628
330
70
100
AcDbEntity
  8
팀플 평면 최종 v6_0
100
AcDbLine
 10
96.5412
 20
228.115
 30
0.0
 11
96.5369
 21
228.138
 31
0.0
  0
LINE
  5
629
330
70
100
AcDbEntity
  8
팀플 평면 최종 v6_0
100
AcDbLine
 10
66.657
 20
228.115
 30
0.0
 11
66.6888
 21
228.1
 31
0.0
  0
LINE
  5
62A
330
70
100
AcDbEntity
  8
팀플 평면 최종 v6_0
100
AcDbLine
 10
66.66119999999999
 20
228.138
 30
0.0
 11
66.657
 21
228.115
 31
0.0
  0
LINE
  5
62B
330
70
100
AcDbEntity
  8
팀플 평면 최종 v6_0
100
AcDbLine
 10
72.5001
 20
225.184
 30
0.0
 11
72.529
 21
225.13
 31
0.0
  0
LINE
  5
62C
330
70
100
AcDbEntity
  8
팀플 평면 최종 v6_0
100
AcDbLine
 10
72.58259999999999
 20
225.1
 30
0.0
 11
72.6006
 21
225.1
 31
0.0
  0
LINE
  5
62D
330
70
100
AcDbEntity
  8
팀플 평면 최종 v6_0
100
AcDbLine
 10
72.53709999999999
 20
228.138
 30
0.0
 11
72.51380000000001
 21
228.142
 31
0.0
  0
LINE
  5
62E
330
70
100
AcDbEntity
  8
팀플 평면 최종 v6_0
100
AcDbLine
 10
84.4998
 20
228.111
 30
0.0
 11
84.4998
 21
228.1
 31
0.0
  0
LINE
  5
62F
330
70
100
AcDbEntity
  8
팀플 평면 최종 v6_0
100
AcDbLine
 10
132.509
 20
228.1
 30
0.0
 11
132.541
 21
228.115
 31
0.0
  0
LINE
  5
630
330
70
100
AcDbEntity
  8
팀플 평면 최종 v6_0
100
AcDbLine
 10
102.7
 20
228.111
 30
0.0
 11
102.684
 21
228.142
 31
0.0
  0
LINE
  5
631
330
70
100
AcDbEntity
  8
팀플 평면 최종 v6_0
100
AcDbLine
 10
126.699
 20
228.1
 30
0.0
 11
132.5
 21
228.1
 31
0.0
  0
LINE
  5
632
330
70
100
AcDbEntity
  8
팀플 평면 최종 v6_0
100
AcDbLine
 10
120.583
 20
225.1
 30
0.0
 11
120.6
 21
225.1
 31
0.0
  0
LINE
  5
633
330
70
100
AcDbEntity
  8
팀플 평면 최종 v6_0
100
AcDbLine
 10
120.5
 20
228.111
 30
0.0
 11
120.5
 21
228.1
 31
0.0
  0
LINE
  5
634
330
70
100
AcDbEntity
  8
팀플 평면 최종 v6_0
100
AcDbLine
 10
84.52870000000002
 20
225.13
 30
0.0
 11
84.58270000000002
 21
225.1
 31
0.0
  0
LINE
  5
635
330
70
100
AcDbEntity
  8
팀플 평면 최종 v6_0
100
AcDbLine
 10
114.671
 20
225.13
 30
0.0
 11
114.7
 21
225.184
 31
0.0
  0
LINE
  5
636
330
70
100
AcDbEntity
  8
팀플 평면 최종 v6_0
100
AcDbLine
 10
102.689
 20
228.1
 30
0.0
 11
102.7
 21
228.1
 31
0.0
  0
LINE
  5
637
330
70
100
AcDbEntity
  8
팀플 평면 최종 v6_0
100
AcDbLine
 10
108.5
 20
228.1
 30
0.0
 11
108.51
 21
228.1
 31
0.0
  0
LINE
  5
638
330
70
100
AcDbEntity
  8
팀플 평면 최종 v6_0
100
AcDbLine
 10
78.67090000000001
 20
225.13
 30
0.0
 11
78.69980000000001
 21
225.184
 31
0.0
  0
LINE
  5
639
330
70
100
AcDbEntity
  8
팀플 평면 최종 v6_0
100
AcDbLine
 10
66.69970000000001
 20
228.111
 30
0.0
 11
66.68449999999999
 21
228.142
 31
0.0
  0
LINE
  5
63A
330
70
100
AcDbEntity
  8
팀플 평면 최종 v6_0
100
AcDbLine
 10
96.5369
 20
228.138
 30
0.0
 11
96.5137
 21
228.142
 31
0.0
  0
LINE
  5
63B
330
70
100
AcDbEntity
  8
팀플 평면 최종 v6_0
100
AcDbLine
 10
84.4998
 20
225.184
 30
0.0
 11
84.5287
 21
225.13
 31
0.0
  0
LINE
  5
63C
330
70
100
AcDbEntity
  8
팀플 평면 최종 v6_0
100
AcDbLine
 10
120.5
 20
225.184
 30
0.0
 11
120.529
 21
225.13
 31
0.0
  0
LINE
  5
63D
330
70
100
AcDbEntity
  8
팀플 평면 최종 v6_0
100
AcDbLine
 10
108.5
 20
225.2
 30
0.0
 11
108.5
 21
225.184
 31
0.0
  0
LINE
  5
63E
330
70
100
AcDbEntity
  8
팀플 평면 최종 v6_0
100
AcDbLine
 10
108.583
 20
225.1
 30
0.0
 11
108.601
 21
225.1
 31
0.0
  0
LINE
  5
63F
330
70
100
AcDbEntity
  8
팀플 평면 최종 v6_0
100
AcDbLine
 10
102.7
 20
228.1
 30
0.0
 11
108.5
 21
228.1
 31
0.0
  0
LINE
  5
640
330
70
100
AcDbEntity
  8
팀플 평면 최종 v6_0
100
AcDbLine
 10
84.51359999999999
 20
228.142
 30
0.0
 11
84.49980000000001
 21
228.111
 31
0.0
  0
LINE
  5
641
330
70
100
AcDbEntity
  8
팀플 평면 최종 v6_0
100
AcDbLine
 10
108.5
 20
228.1
 30
0.0
 11
108.5
 21
225.2
 31
0.0
  0
LINE
  5
642
330
70
100
AcDbEntity
  8
팀플 평면 최종 v6_0
100
AcDbLine
 10
138.662
 20
228.138
 30
0.0
 11
138.657
 21
228.115
 31
0.0
  0
LINE
  5
643
330
70
100
AcDbEntity
  8
팀플 평면 최종 v6_0
100
AcDbLine
 10
96.49990000000002
 20
228.1
 30
0.0
 11
96.49990000000002
 21
225.2
 31
0.0
  0
LINE
  5
644
330
70
100
AcDbEntity
  8
팀플 평면 최종 v6_0
100
AcDbLine
 10
108.537
 20
228.138
 30
0.0
 11
108.514
 21
228.142
 31
0.0
  0
LINE
  5
645
330
70
100
AcDbEntity
  8
팀플 평면 최종 v6_0
100
AcDbLine
 10
144.541
 20
228.115
 30
0.0
 11
144.537
 21
228.138
 31
0.0
  0
LINE
  5
646
330
70
100
AcDbEntity
  8
팀플 평면 최종 v6_0
100
AcDbLine
 10
102.7
 20
228.1
 30
0.0
 11
102.7
 21
228.111
 31
0.0
  0
LINE
  5
647
330
70
100
AcDbEntity
  8
팀플 평면 최종 v6_0
100
AcDbLine
 10
114.601
 20
225.1
 30
0.0
 11
114.617
 21
225.1
 31
0.0
  0
LINE
  5
648
330
70
100
AcDbEntity
  8
팀플 평면 최종 v6_0
100
AcDbLine
 10
150.617
 20
225.1
 30
0.0
 11
150.671
 21
225.13
 31
0.0
  0
LINE
  5
649
330
70
100
AcDbEntity
  8
팀플 평면 최종 v6_0
100
AcDbLine
 10
162.67
 20
225.13
 30
0.0
 11
162.699
 21
225.184
 31
0.0
  0
LINE
  5
64A
330
70
100
AcDbEntity
  8
팀플 평면 최종 v6_0
100
AcDbLine
 10
114.685
 20
228.142
 30
0.0
 11
114.662
 21
228.138
 31
0.0
  0
LINE
  5
64B
330
70
100
AcDbEntity
  8
팀플 평면 최종 v6_0
100
AcDbLine
 10
132.514
 20
228.142
 30
0.0
 11
132.5
 21
228.111
 31
0.0
  0
LINE
  5
64C
330
70
100
AcDbEntity
  8
팀플 평면 최종 v6_0
100
AcDbLine
 10
108.5
 20
225.184
 30
0.0
 11
108.529
 21
225.13
 31
0.0
  0
LINE
  5
64D
330
70
100
AcDbEntity
  8
팀플 평면 최종 v6_0
100
AcDbLine
 10
156.5
 20
225.2
 30
0.0
 11
156.5
 21
225.184
 31
0.0
  0
LINE
  5
64E
330
70
100
AcDbEntity
  8
팀플 평면 최종 v6_0
100
AcDbLine
 10
114.7
 20
225.2
 30
0.0
 11
114.7
 21
228.1
 31
0.0
  0
LINE
  5
64F
330
70
100
AcDbEntity
  8
팀플 평면 최종 v6_0
100
AcDbLine
 10
150.688
 20
228.1
 30
0.0
 11
150.7
 21
228.1
 31
0.0
  0
LINE
  5
650
330
70
100
AcDbEntity
  8
팀플 평면 최종 v6_0
100
AcDbLine
 10
120.537
 20
228.138
 30
0.0
 11
120.513
 21
228.142
 31
0.0
  0
LINE
  5
651
330
70
100
AcDbEntity
  8
팀플 평면 최종 v6_0
100
AcDbLine
 10
102.663
 20
228.138
 30
0.0
 11
102.657
 21
228.115
 31
0.0
  0
LINE
  5
652
330
70
100
AcDbEntity
  8
팀플 평면 최종 v6_0
100
AcDbLine
 10
120.529
 20
225.13
 30
0.0
 11
120.583
 21
225.1
 31
0.0
  0
LINE
  5
653
330
70
100
AcDbEntity
  8
팀플 평면 최종 v6_0
100
AcDbLine
 10
114.7
 20
228.111
 30
0.0
 11
114.685
 21
228.142
 31
0.0
  0
LINE
  5
654
330
70
100
AcDbEntity
  8
팀플 평면 최종 v6_0
100
AcDbLine
 10
156.541
 20
228.115
 30
0.0
 11
156.537
 21
228.138
 31
0.0
  0
LINE
  5
655
330
70
100
AcDbEntity
  8
팀플 평면 최종 v6_0
100
AcDbLine
 10
138.7
 20
228.1
 30
0.0
 11
144.5
 21
228.1
 31
0.0
  0
LINE
  5
656
330
70
100
AcDbEntity
  8
팀플 평면 최종 v6_0
100
AcDbLine
 10
96.60040000000002
 20
225.1
 30
0.0
 11
102.6
 21
225.1
 31
0.0
  0
LINE
  5
657
330
70
100
AcDbEntity
  8
팀플 평면 최종 v6_0
100
AcDbLine
 10
156.529
 20
225.13
 30
0.0
 11
156.582
 21
225.1
 31
0.0
  0
LINE
  5
658
330
70
100
AcDbEntity
  8
팀플 평면 최종 v6_0
100
AcDbLine
 10
180.541
 20
228.115
 30
0.0
 11
180.537
 21
228.138
 31
0.0
  0
LINE
  5
659
330
70
100
AcDbEntity
  8
팀플 평면 최종 v6_0
100
AcDbLine
 10
150.671
 20
225.13
 30
0.0
 11
150.7
 21
225.184
 31
0.0
  0
LINE
  5
65A
330
70
100
AcDbEntity
  8
팀플 평면 최종 v6_0
100
AcDbLine
 10
156.509
 20
228.1
 30
0.0
 11
156.541
 21
228.115
 31
0.0
  0
LINE
  5
65B
330
70
100
AcDbEntity
  8
팀플 평면 최종 v6_0
100
AcDbLine
 10
138.7
 20
228.111
 30
0.0
 11
138.684
 21
228.142
 31
0.0
  0
LINE
  5
65C
330
70
100
AcDbEntity
  8
팀플 평면 최종 v6_0
100
AcDbLine
 10
126.699
 20
228.1
 30
0.0
 11
126.699
 21
228.111
 31
0.0
  0
LINE
  5
65D
330
70
100
AcDbEntity
  8
팀플 평면 최종 v6_0
100
AcDbLine
 10
144.5
 20
228.1
 30
0.0
 11
144.509
 21
228.1
 31
0.0
  0
LINE
  5
65E
330
70
100
AcDbEntity
  8
팀플 평면 최종 v6_0
100
AcDbLine
 10
150.684
 20
228.142
 30
0.0
 11
150.662
 21
228.138
 31
0.0
  0
LINE
  5
65F
330
70
100
AcDbEntity
  8
팀플 평면 최종 v6_0
100
AcDbLine
 10
144.5
 20
225.184
 30
0.0
 11
144.529
 21
225.13
 31
0.0
  0
LINE
  5
660
330
70
100
AcDbEntity
  8
팀플 평면 최종 v6_0
100
AcDbLine
 10
132.5
 20
228.111
 30
0.0
 11
132.5
 21
228.1
 31
0.0
  0
LINE
  5
661
330
70
100
AcDbEntity
  8
팀플 평면 최종 v6_0
100
AcDbLine
 10
108.541
 20
228.115
 30
0.0
 11
108.537
 21
228.138
 31
0.0
  0
LINE
  5
662
330
70
100
AcDbEntity
  8
팀플 평면 최종 v6_0
100
AcDbLine
 10
150.662
 20
228.138
 30
0.0
 11
150.657
 21
228.115
 31
0.0
  0
LINE
  5
663
330
70
100
AcDbEntity
  8
팀플 평면 최종 v6_0
100
AcDbLine
 10
156.5
 20
228.1
 30
0.0
 11
156.509
 21
228.1
 31
0.0
  0
LINE
  5
664
330
70
100
AcDbEntity
  8
팀플 평면 최종 v6_0
100
AcDbLine
 10
120.6
 20
225.1
 30
0.0
 11
126.6
 21
225.1
 31
0.0
  0
LINE
  5
665
330
70
100
AcDbEntity
  8
팀플 평면 최종 v6_0
100
AcDbLine
 10
162.684
 20
228.142
 30
0.0
 11
162.662
 21
228.138
 31
0.0
  0
LINE
  5
666
330
70
100
AcDbEntity
  8
팀플 평면 최종 v6_0
100
AcDbLine
 10
174.701
 20
225.184
 30
0.0
 11
174.701
 21
225.2
 31
0.0
  0
LINE
  5
667
330
70
100
AcDbEntity
  8
팀플 평면 최종 v6_0
100
AcDbLine
 10
132.6
 20
225.1
 30
0.0
 11
138.6
 21
225.1
 31
0.0
  0
LINE
  5
668
330
70
100
AcDbEntity
  8
팀플 평면 최종 v6_0
100
AcDbLine
 10
126.671
 20
225.13
 30
0.0
 11
126.699
 21
225.184
 31
0.0
  0
LINE
  5
669
330
70
100
AcDbEntity
  8
팀플 평면 최종 v6_0
100
AcDbLine
 10
144.6
 20
225.1
 30
0.0
 11
150.6
 21
225.1
 31
0.0
  0
LINE
  5
66A
330
70
100
AcDbEntity
  8
팀플 평면 최종 v6_0
100
AcDbLine
 10
132.5
 20
225.184
 30
0.0
 11
132.529
 21
225.13
 31
0.0
  0
LINE
  5
66B
330
70
100
AcDbEntity
  8
팀플 평면 최종 v6_0
100
AcDbLine
 10
150.7
 20
228.1
 30
0.0
 11
156.5
 21
228.1
 31
0.0
  0
LINE
  5
66C
330
70
100
AcDbEntity
  8
팀플 평면 최종 v6_0
100
AcDbLine
 10
126.699
 20
228.111
 30
0.0
 11
126.684
 21
228.142
 31
0.0
  0
LINE
  5
66D
330
70
100
AcDbEntity
  8
팀플 평면 최종 v6_0
100
AcDbLine
 10
102.7
 20
225.184
 30
0.0
 11
102.7
 21
225.2
 31
0.0
  0
LINE
  5
66E
330
70
100
AcDbEntity
  8
팀플 평면 최종 v6_0
100
AcDbLine
 10
120.5
 20
228.1
 30
0.0
 11
120.51
 21
228.1
 31
0.0
  0
LINE
  5
66F
330
70
100
AcDbEntity
  8
팀플 평면 최종 v6_0
100
AcDbLine
 10
174.686
 20
228.142
 30
0.0
 11
174.662
 21
228.138
 31
0.0
  0
LINE
  5
670
330
70
100
AcDbEntity
  8
팀플 평면 최종 v6_0
100
AcDbLine
 10
138.657
 20
228.115
 30
0.0
 11
138.689
 21
228.1
 31
0.0
  0
LINE
  5
671
330
70
100
AcDbEntity
  8
팀플 평면 최종 v6_0
100
AcDbLine
 10
102.671
 20
225.13
 30
0.0
 11
102.7
 21
225.184
 31
0.0
  0
LINE
  5
672
330
70
100
AcDbEntity
  8
팀플 평면 최종 v6_0
100
AcDbLine
 10
120.513
 20
228.142
 30
0.0
 11
120.5
 21
228.111
 31
0.0
  0
LINE
  5
673
330
70
100
AcDbEntity
  8
팀플 평면 최종 v6_0
100
AcDbLine
 10
126.657
 20
228.115
 30
0.0
 11
126.688
 21
228.1
 31
0.0
  0
LINE
  5
674
330
70
100
AcDbEntity
  8
팀플 평면 최종 v6_0
100
AcDbLine
 10
120.51
 20
228.1
 30
0.0
 11
120.541
 21
228.115
 31
0.0
  0
LINE
  5
675
330
70
100
AcDbEntity
  8
팀플 평면 최종 v6_0
100
AcDbLine
 10
144.509
 20
228.1
 30
0.0
 11
144.541
 21
228.115
 31
0.0
  0
LINE
  5
676
330
70
100
AcDbEntity
  8
팀플 평면 최종 v6_0
100
AcDbLine
 10
144.582
 20
225.1
 30
0.0
 11
144.6
 21
225.1
 31
0.0
  0
LINE
  5
677
330
70
100
AcDbEntity
  8
팀플 평면 최종 v6_0
100
AcDbLine
 10
120.5
 20
225.2
 30
0.0
 11
120.5
 21
225.184
 31
0.0
  0
LINE
  5
678
330
70
100
AcDbEntity
  8
팀플 평면 최종 v6_0
100
AcDbLine
 10
186.7
 20
228.1
 30
0.0
 11
186.7
 21
228.111
 31
0.0
  0
LINE
  5
679
330
70
100
AcDbEntity
  8
팀플 평면 최종 v6_0
100
AcDbLine
 10
186.6559999999999
 20
228.115
 30
0.0
 11
186.688
 21
228.1
 31
0.0
  0
LINE
  5
67A
330
70
100
AcDbEntity
  8
팀플 평면 최종 v6_0
100
AcDbLine
 10
168.513
 20
228.142
 30
0.0
 11
168.5
 21
228.111
 31
0.0
  0
LINE
  5
67B
330
70
100
AcDbEntity
  8
팀플 평면 최종 v6_0
100
AcDbLine
 10
174.6579999999999
 20
228.115
 30
0.0
 11
174.69
 21
228.1
 31
0.0
  0
LINE
  5
67C
330
70
100
AcDbEntity
  8
팀플 평면 최종 v6_0
100
AcDbLine
 10
216.541
 20
228.115
 30
0.0
 11
216.537
 21
228.138
 31
0.0
  0
LINE
  5
67D
330
70
100
AcDbEntity
  8
팀플 평면 최종 v6_0
100
AcDbLine
 10
156.5
 20
225.184
 30
0.0
 11
156.529
 21
225.13
 31
0.0
  0
LINE
  5
67E
330
70
100
AcDbEntity
  8
팀플 평면 최종 v6_0
100
AcDbLine
 10
138.6
 20
225.1
 30
0.0
 11
138.617
 21
225.1
 31
0.0
  0
LINE
  5
67F
330
70
100
AcDbEntity
  8
팀플 평면 최종 v6_0
100
AcDbLine
 10
144.529
 20
225.13
 30
0.0
 11
144.582
 21
225.1
 31
0.0
  0
LINE
  5
680
330
70
100
AcDbEntity
  8
팀플 평면 최종 v6_0
100
AcDbLine
 10
168.6
 20
225.1
 30
0.0
 11
174.6
 21
225.1
 31
0.0
  0
LINE
  5
681
330
70
100
AcDbEntity
  8
팀플 평면 최종 v6_0
100
AcDbLine
 10
138.684
 20
228.142
 30
0.0
 11
138.662
 21
228.138
 31
0.0
  0
LINE
  5
682
330
70
100
AcDbEntity
  8
팀플 평면 최종 v6_0
100
AcDbLine
 10
168.5
 20
228.1
 30
0.0
 11
168.509
 21
228.1
 31
0.0
  0
LINE
  5
683
330
70
100
AcDbEntity
  8
팀플 평면 최종 v6_0
100
AcDbLine
 10
156.5
 20
228.1
 30
0.0
 11
156.5
 21
225.2
 31
0.0
  0
LINE
  5
684
330
70
100
AcDbEntity
  8
팀플 평면 최종 v6_0
100
AcDbLine
 10
162.699
 20
228.1
 30
0.0
 11
168.5
 21
228.1
 31
0.0
  0
LINE
  5
685
330
70
100
AcDbEntity
  8
팀플 평면 최종 v6_0
100
AcDbLine
 10
192.513
 20
228.142
 30
0.0
 11
192.5
 21
228.111
 31
0.0
  0
LINE
  5
686
330
70
100
AcDbEntity
  8
팀플 평면 최종 v6_0
100
AcDbLine
 10
132.582
 20
225.1
 30
0.0
 11
132.6
 21
225.1
 31
0.0
  0
LINE
  5
687
330
70
100
AcDbEntity
  8
팀플 평면 최종 v6_0
100
AcDbLine
 10
168.582
 20
225.1
 30
0.0
 11
168.6
 21
225.1
 31
0.0
  0
LINE
  5
688
330
70
100
AcDbEntity
  8
팀플 평면 최종 v6_0
100
AcDbLine
 10
162.699
 20
228.1
 30
0.0
 11
162.699
 21
228.111
 31
0.0
  0
LINE
  5
689
330
70
100
AcDbEntity
  8
팀플 평면 최종 v6_0
100
AcDbLine
 10
192.5
 20
228.1
 30
0.0
 11
192.5
 21
225.2
 31
0.0
  0
LINE
  5
68A
330
70
100
AcDbEntity
  8
팀플 평면 최종 v6_0
100
AcDbLine
 10
150.6
 20
225.1
 30
0.0
 11
150.617
 21
225.1
 31
0.0
  0
LINE
  5
68B
330
70
100
AcDbEntity
  8
팀플 평면 최종 v6_0
100
AcDbLine
 10
144.5
 20
225.2
 30
0.0
 11
144.5
 21
225.184
 31
0.0
  0
LINE
  5
68C
330
70
100
AcDbEntity
  8
팀플 평면 최종 v6_0
100
AcDbLine
 10
174.617
 20
225.1
 30
0.0
 11
174.671
 21
225.13
 31
0.0
  0
LINE
  5
68D
330
70
100
AcDbEntity
  8
팀플 평면 최종 v6_0
100
AcDbLine
 10
168.529
 20
225.13
 30
0.0
 11
168.582
 21
225.1
 31
0.0
  0
LINE
  5
68E
330
70
100
AcDbEntity
  8
팀플 평면 최종 v6_0
100
AcDbLine
 10
150.7
 20
228.111
 30
0.0
 11
150.684
 21
228.142
 31
0.0
  0
LINE
  5
68F
330
70
100
AcDbEntity
  8
팀플 평면 최종 v6_0
100
AcDbLine
 10
138.617
 20
225.1
 30
0.0
 11
138.671
 21
225.13
 31
0.0
  0
LINE
  5
690
330
70
100
AcDbEntity
  8
팀플 평면 최종 v6_0
100
AcDbLine
 10
138.671
 20
225.13
 30
0.0
 11
138.7
 21
225.184
 31
0.0
  0
LINE
  5
691
330
70
100
AcDbEntity
  8
팀플 평면 최종 v6_0
100
AcDbLine
 10
150.657
 20
228.115
 30
0.0
 11
150.688
 21
228.1
 31
0.0
  0
LINE
  5
692
330
70
100
AcDbEntity
  8
팀플 평면 최종 v6_0
100
AcDbLine
 10
150.7
 20
228.1
 30
0.0
 11
150.7
 21
228.111
 31
0.0
  0
LINE
  5
693
330
70
100
AcDbEntity
  8
팀플 평면 최종 v6_0
100
AcDbLine
 10
168.541
 20
228.115
 30
0.0
 11
168.537
 21
228.138
 31
0.0
  0
LINE
  5
694
330
70
100
AcDbEntity
  8
팀플 평면 최종 v6_0
100
AcDbLine
 10
156.582
 20
225.1
 30
0.0
 11
156.6
 21
225.1
 31
0.0
  0
LINE
  5
695
330
70
100
AcDbEntity
  8
팀플 평면 최종 v6_0
100
AcDbLine
 10
144.537
 20
228.138
 30
0.0
 11
144.514
 21
228.142
 31
0.0
  0
LINE
  5
696
330
70
100
AcDbEntity
  8
팀플 평면 최종 v6_0
100
AcDbLine
 10
138.7
 20
225.2
 30
0.0
 11
138.7
 21
228.1
 31
0.0
  0
LINE
  5
697
330
70
100
AcDbEntity
  8
팀플 평면 최종 v6_0
100
AcDbLine
 10
138.7
 20
228.1
 30
0.0
 11
138.7
 21
228.111
 31
0.0
  0
LINE
  5
698
330
70
100
AcDbEntity
  8
팀플 평면 최종 v6_0
100
AcDbLine
 10
150.7
 20
225.184
 30
0.0
 11
150.7
 21
225.2
 31
0.0
  0
LINE
  5
699
330
70
100
AcDbEntity
  8
팀플 평면 최종 v6_0
100
AcDbLine
 10
150.7
 20
225.2
 30
0.0
 11
150.7
 21
228.1
 31
0.0
  0
LINE
  5
69A
330
70
100
AcDbEntity
  8
팀플 평면 최종 v6_0
100
AcDbLine
 10
168.5
 20
225.2
 30
0.0
 11
168.5
 21
225.184
 31
0.0
  0
LINE
  5
69B
330
70
100
AcDbEntity
  8
팀플 평면 최종 v6_0
100
AcDbLine
 10
138.689
 20
228.1
 30
0.0
 11
138.7
 21
228.1
 31
0.0
  0
LINE
  5
69C
330
70
100
AcDbEntity
  8
팀플 평면 최종 v6_0
100
AcDbLine
 10
132.529
 20
225.13
 30
0.0
 11
132.582
 21
225.1
 31
0.0
  0
LINE
  5
69D
330
70
100
AcDbEntity
  8
팀플 평면 최종 v6_0
100
AcDbLine
 10
162.699
 20
225.184
 30
0.0
 11
162.699
 21
225.2
 31
0.0
  0
LINE
  5
69E
330
70
100
AcDbEntity
  8
팀플 평면 최종 v6_0
100
AcDbLine
 10
162.699
 20
225.2
 30
0.0
 11
162.699
 21
228.1
 31
0.0
  0
LINE
  5
69F
330
70
100
AcDbEntity
  8
팀플 평면 최종 v6_0
100
AcDbLine
 10
156.537
 20
228.138
 30
0.0
 11
156.513
 21
228.142
 31
0.0
  0
LINE
  5
6A0
330
70
100
AcDbEntity
  8
팀플 평면 최종 v6_0
100
AcDbLine
 10
162.6
 20
225.1
 30
0.0
 11
162.617
 21
225.1
 31
0.0
  0
LINE
  5
6A1
330
70
100
AcDbEntity
  8
팀플 평면 최종 v6_0
100
AcDbLine
 10
192.528
 20
225.13
 30
0.0
 11
192.582
 21
225.1
 31
0.0
  0
LINE
  5
6A2
330
70
100
AcDbEntity
  8
팀플 평면 최종 v6_0
100
AcDbLine
 10
132.5
 20
228.1
 30
0.0
 11
132.5
 21
225.2
 31
0.0
  0
LINE
  5
6A3
330
70
100
AcDbEntity
  8
팀플 평면 최종 v6_0
100
AcDbLine
 10
144.514
 20
228.142
 30
0.0
 11
144.5
 21
228.111
 31
0.0
  0
LINE
  5
6A4
330
70
100
AcDbEntity
  8
팀플 평면 최종 v6_0
100
AcDbLine
 10
180.499
 20
225.2
 30
0.0
 11
180.499
 21
225.184
 31
0.0
  0
LINE
  5
6A5
330
70
100
AcDbEntity
  8
팀플 평면 최종 v6_0
100
AcDbLine
 10
180.499
 20
228.1
 30
0.0
 11
180.499
 21
225.2
 31
0.0
  0
LINE
  5
6A6
330
70
100
AcDbEntity
  8
팀플 평면 최종 v6_0
100
AcDbLine
 10
132.5
 20
225.2
 30
0.0
 11
132.5
 21
225.184
 31
0.0
  0
LINE
  5
6A7
330
70
100
AcDbEntity
  8
팀플 평면 최종 v6_0
100
AcDbLine
 10
174.671
 20
225.13
 30
0.0
 11
174.701
 21
225.184
 31
0.0
  0
LINE
  5
6A8
330
70
100
AcDbEntity
  8
팀플 평면 최종 v6_0
100
AcDbLine
 10
144.5
 20
228.111
 30
0.0
 11
144.5
 21
228.1
 31
0.0
  0
LINE
  5
6A9
330
70
100
AcDbEntity
  8
팀플 평면 최종 v6_0
100
AcDbLine
 10
180.499
 20
228.111
 30
0.0
 11
180.499
 21
228.1
 31
0.0
  0
LINE
  5
6AA
330
70
100
AcDbEntity
  8
팀플 평면 최종 v6_0
100
AcDbLine
 10
156.513
 20
228.142
 30
0.0
 11
156.5
 21
228.111
 31
0.0
  0
LINE
  5
6AB
330
70
100
AcDbEntity
  8
팀플 평면 최종 v6_0
100
AcDbLine
 10
180.499
 20
228.1
 30
0.0
 11
180.509
 21
228.1
 31
0.0
  0
LINE
  5
6AC
330
70
100
AcDbEntity
  8
팀플 평면 최종 v6_0
100
AcDbLine
 10
132.537
 20
228.138
 30
0.0
 11
132.514
 21
228.142
 31
0.0
  0
LINE
  5
6AD
330
70
100
AcDbEntity
  8
팀플 평면 최종 v6_0
100
AcDbLine
 10
144.5
 20
228.1
 30
0.0
 11
144.5
 21
225.2
 31
0.0
  0
LINE
  5
6AE
330
70
100
AcDbEntity
  8
팀플 평면 최종 v6_0
100
AcDbLine
 10
192.5
 20
228.1
 30
0.0
 11
192.509
 21
228.1
 31
0.0
  0
LINE
  5
6AF
330
70
100
AcDbEntity
  8
팀플 평면 최종 v6_0
100
AcDbLine
 10
216.537
 20
228.138
 30
0.0
 11
216.513
 21
228.142
 31
0.0
  0
LINE
  5
6B0
330
70
100
AcDbEntity
  8
팀플 평면 최종 v6_0
100
AcDbLine
 10
174.6
 20
225.1
 30
0.0
 11
174.617
 21
225.1
 31
0.0
  0
LINE
  5
6B1
330
70
100
AcDbEntity
  8
팀플 평면 최종 v6_0
100
AcDbLine
 10
180.537
 20
228.138
 30
0.0
 11
180.513
 21
228.142
 31
0.0
  0
LINE
  5
6B2
330
70
100
AcDbEntity
  8
팀플 평면 최종 v6_0
100
AcDbLine
 10
192.5
 20
225.2
 30
0.0
 11
192.5
 21
225.184
 31
0.0
  0
LINE
  5
6B3
330
70
100
AcDbEntity
  8
팀플 평면 최종 v6_0
100
AcDbLine
 10
216.582
 20
225.1
 30
0.0
 11
216.6
 21
225.1
 31
0.0
  0
LINE
  5
6B4
330
70
100
AcDbEntity
  8
팀플 평면 최종 v6_0
100
AcDbLine
 10
186.7
 20
225.2
 30
0.0
 11
186.7
 21
228.1
 31
0.0
  0
LINE
  5
6B5
330
70
100
AcDbEntity
  8
팀플 평면 최종 v6_0
100
AcDbLine
 10
186.671
 20
225.13
 30
0.0
 11
186.7
 21
225.184
 31
0.0
  0
LINE
  5
6B6
330
70
100
AcDbEntity
  8
팀플 평면 최종 v6_0
100
AcDbLine
 10
174.701
 20
228.1
 30
0.0
 11
174.701
 21
228.111
 31
0.0
  0
LINE
  5
6B7
330
70
100
AcDbEntity
  8
팀플 평면 최종 v6_0
100
AcDbLine
 10
192.537
 20
228.138
 30
0.0
 11
192.513
 21
228.142
 31
0.0
  0
LINE
  5
6B8
330
70
100
AcDbEntity
  8
팀플 평면 최종 v6_0
100
AcDbLine
 10
192.509
 20
228.1
 30
0.0
 11
192.541
 21
228.115
 31
0.0
  0
LINE
  5
6B9
330
70
100
AcDbEntity
  8
팀플 평면 최종 v6_0
100
AcDbLine
 10
216.499
 20
225.2
 30
0.0
 11
216.499
 21
225.184
 31
0.0
  0
LINE
  5
6BA
330
70
100
AcDbEntity
  8
팀플 평면 최종 v6_0
100
AcDbLine
 10
186.7
 20
225.184
 30
0.0
 11
186.7
 21
225.2
 31
0.0
  0
LINE
  5
6BB
330
70
100
AcDbEntity
  8
팀플 평면 최종 v6_0
100
AcDbLine
 10
180.582
 20
225.1
 30
0.0
 11
180.6
 21
225.1
 31
0.0
  0
LINE
  5
6BC
330
70
100
AcDbEntity
  8
팀플 평면 최종 v6_0
100
AcDbLine
 10
186.684
 20
228.142
 30
0.0
 11
186.662
 21
228.138
 31
0.0
  0
LINE
  5
6BD
330
70
100
AcDbEntity
  8
팀플 평면 최종 v6_0
100
AcDbLine
 10
210.689
 20
228.1
 30
0.0
 11
210.701
 21
228.1
 31
0.0
  0
LINE
  5
6BE
330
70
100
AcDbEntity
  8
팀플 평면 최종 v6_0
100
AcDbLine
 10
174.701
 20
228.111
 30
0.0
 11
174.686
 21
228.142
 31
0.0
  0
LINE
  5
6BF
330
70
100
AcDbEntity
  8
팀플 평면 최종 v6_0
100
AcDbLine
 10
180.6
 20
225.1
 30
0.0
 11
186.6
 21
225.1
 31
0.0
  0
LINE
  5
6C0
330
70
100
AcDbEntity
  8
팀플 평면 최종 v6_0
100
AcDbLine
 10
168.5
 20
228.1
 30
0.0
 11
168.5
 21
225.2
 31
0.0
  0
LINE
  5
6C1
330
70
100
AcDbEntity
  8
팀플 평면 최종 v6_0
100
AcDbLine
 10
198.662
 20
228.138
 30
0.0
 11
198.657
 21
228.115
 31
0.0
  0
LINE
  5
6C2
330
70
100
AcDbEntity
  8
팀플 평면 최종 v6_0
100
AcDbLine
 10
168.537
 20
228.138
 30
0.0
 11
168.513
 21
228.142
 31
0.0
  0
LINE
  5
6C3
330
70
100
AcDbEntity
  8
팀플 평면 최종 v6_0
100
AcDbLine
 10
162.657
 20
228.115
 30
0.0
 11
162.688
 21
228.1
 31
0.0
  0
LINE
  5
6C4
330
70
100
AcDbEntity
  8
팀플 평면 최종 v6_0
100
AcDbLine
 10
216.528
 20
225.13
 30
0.0
 11
216.582
 21
225.1
 31
0.0
  0
LINE
  5
6C5
330
70
100
AcDbEntity
  8
팀플 평면 최종 v6_0
100
AcDbLine
 10
222.7
 20
225.2
 30
0.0
 11
222.7
 21
228.1
 31
0.0
  0
LINE
  5
6C6
330
70
100
AcDbEntity
  8
팀플 평면 최종 v6_0
100
AcDbLine
 10
174.662
 20
228.138
 30
0.0
 11
174.6579999999999
 21
228.115
 31
0.0
  0
LINE
  5
6C7
330
70
100
AcDbEntity
  8
팀플 평면 최종 v6_0
100
AcDbLine
 10
186.7
 20
228.111
 30
0.0
 11
186.684
 21
228.142
 31
0.0
  0
LINE
  5
6C8
330
70
100
AcDbEntity
  8
팀플 평면 최종 v6_0
100
AcDbLine
 10
216.5090000000001
 20
228.1
 30
0.0
 11
216.541
 21
228.115
 31
0.0
  0
LINE
  5
6C9
330
70
100
AcDbEntity
  8
팀플 평면 최종 v6_0
100
AcDbLine
 10
216.499
 20
228.111
 30
0.0
 11
216.499
 21
228.1
 31
0.0
  0
LINE
  5
6CA
330
70
100
AcDbEntity
  8
팀플 평면 최종 v6_0
100
AcDbLine
 10
180.499
 20
225.184
 30
0.0
 11
180.528
 21
225.13
 31
0.0
  0
LINE
  5
6CB
330
70
100
AcDbEntity
  8
팀플 평면 최종 v6_0
100
AcDbLine
 10
198.688
 20
228.1
 30
0.0
 11
198.699
 21
228.1
 31
0.0
  0
LINE
  5
6CC
330
70
100
AcDbEntity
  8
팀플 평면 최종 v6_0
100
AcDbLine
 10
186.688
 20
228.1
 30
0.0
 11
186.7
 21
228.1
 31
0.0
  0
LINE
  5
6CD
330
70
100
AcDbEntity
  8
팀플 평면 최종 v6_0
100
AcDbLine
 10
216.499
 20
228.1
 30
0.0
 11
216.5090000000001
 21
228.1
 31
0.0
  0
LINE
  5
6CE
330
70
100
AcDbEntity
  8
팀플 평면 최종 v6_0
100
AcDbLine
 10
180.528
 20
225.13
 30
0.0
 11
180.582
 21
225.1
 31
0.0
  0
LINE
  5
6CF
330
70
100
AcDbEntity
  8
팀플 평면 최종 v6_0
100
AcDbLine
 10
204.5
 20
228.111
 30
0.0
 11
204.5
 21
228.1
 31
0.0
  0
LINE
  5
6D0
330
70
100
AcDbEntity
  8
팀플 평면 최종 v6_0
100
AcDbLine
 10
180.509
 20
228.1
 30
0.0
 11
180.541
 21
228.115
 31
0.0
  0
LINE
  5
6D1
330
70
100
AcDbEntity
  8
팀플 평면 최종 v6_0
100
AcDbLine
 10
174.69
 20
228.1
 30
0.0
 11
174.7009999999999
 21
228.1
 31
0.0
  0
LINE
  5
6D2
330
70
100
AcDbEntity
  8
팀플 평면 최종 v6_0
100
AcDbLine
 10
168.5
 20
225.184
 30
0.0
 11
168.529
 21
225.13
 31
0.0
  0
LINE
  5
6D3
330
70
100
AcDbEntity
  8
팀플 평면 최종 v6_0
100
AcDbLine
 10
162.688
 20
228.1
 30
0.0
 11
162.699
 21
228.1
 31
0.0
  0
LINE
  5
6D4
330
70
100
AcDbEntity
  8
팀플 평면 최종 v6_0
100
AcDbLine
 10
186.617
 20
225.1
 30
0.0
 11
186.671
 21
225.13
 31
0.0
  0
LINE
  5
6D5
330
70
100
AcDbEntity
  8
팀플 평면 최종 v6_0
100
AcDbLine
 10
186.6
 20
225.1
 30
0.0
 11
186.617
 21
225.1
 31
0.0
  0
LINE
  5
6D6
330
70
100
AcDbEntity
  8
팀플 평면 최종 v6_0
100
AcDbLine
 10
168.509
 20
228.1
 30
0.0
 11
168.5409999999999
 21
228.115
 31
0.0
  0
LINE
  5
6D7
330
70
100
AcDbEntity
  8
팀플 평면 최종 v6_0
100
AcDbLine
 10
204.5
 20
228.1
 30
0.0
 11
204.5
 21
225.2
 31
0.0
  0
LINE
  5
6D8
330
70
100
AcDbEntity
  8
팀플 평면 최종 v6_0
100
AcDbLine
 10
210.701
 20
225.2
 30
0.0
 11
210.701
 21
228.1
 31
0.0
  0
LINE
  5
6D9
330
70
100
AcDbEntity
  8
팀플 평면 최종 v6_0
100
AcDbLine
 10
174.701
 20
225.2
 30
0.0
 11
174.701
 21
228.1
 31
0.0
  0
LINE
  5
6DA
330
70
100
AcDbEntity
  8
팀플 평면 최종 v6_0
100
AcDbLine
 10
192.5
 20
225.184
 30
0.0
 11
192.528
 21
225.13
 31
0.0
  0
LINE
  5
6DB
330
70
100
AcDbEntity
  8
팀플 평면 최종 v6_0
100
AcDbLine
 10
174.701
 20
228.1
 30
0.0
 11
180.499
 21
228.1
 31
0.0
  0
LINE
  5
6DC
330
70
100
AcDbEntity
  8
팀플 평면 최종 v6_0
100
AcDbLine
 10
192.541
 20
228.115
 30
0.0
 11
192.537
 21
228.138
 31
0.0
  0
LINE
  5
6DD
330
70
100
AcDbEntity
  8
팀플 평면 최종 v6_0
100
AcDbLine
 10
210.658
 20
228.115
 30
0.0
 11
210.689
 21
228.1
 31
0.0
  0
LINE
  5
6DE
330
70
100
AcDbEntity
  8
팀플 평면 최종 v6_0
100
AcDbLine
 10
162.662
 20
228.138
 30
0.0
 11
162.657
 21
228.115
 31
0.0
  0
LINE
  5
6DF
330
70
100
AcDbEntity
  8
팀플 평면 최종 v6_0
100
AcDbLine
 10
168.5
 20
228.111
 30
0.0
 11
168.5
 21
228.1
 31
0.0
  0
LINE
  5
6E0
330
70
100
AcDbEntity
  8
팀플 평면 최종 v6_0
100
AcDbLine
 10
192.5
 20
228.111
 30
0.0
 11
192.5
 21
228.1
 31
0.0
  0
LINE
  5
6E1
330
70
100
AcDbEntity
  8
팀플 평면 최종 v6_0
100
AcDbLine
 10
162.699
 20
228.111
 30
0.0
 11
162.684
 21
228.142
 31
0.0
  0
LINE
  5
6E2
330
70
100
AcDbEntity
  8
팀플 평면 최종 v6_0
100
AcDbLine
 10
186.7
 20
228.1
 30
0.0
 11
192.5
 21
228.1
 31
0.0
  0
LINE
  5
6E3
330
70
100
AcDbEntity
  8
팀플 평면 최종 v6_0
100
AcDbLine
 10
186.662
 20
228.138
 30
0.0
 11
186.6559999999999
 21
228.115
 31
0.0
  0
LINE
  5
6E4
330
70
100
AcDbEntity
  8
팀플 평면 최종 v6_0
100
AcDbLine
 10
216.513
 20
228.142
 30
0.0
 11
216.499
 21
228.111
 31
0.0
  0
LINE
  5
6E5
330
70
100
AcDbEntity
  8
팀플 평면 최종 v6_0
100
AcDbLine
 10
222.685
 20
228.142
 30
0.0
 11
222.662
 21
228.138
 31
0.0
  0
LINE
  5
6E6
330
70
100
AcDbEntity
  8
팀플 평면 최종 v6_0
100
AcDbLine
 10
180.513
 20
228.142
 30
0.0
 11
180.499
 21
228.111
 31
0.0
  0
LINE
  5
6E7
330
70
100
AcDbEntity
  8
팀플 평면 최종 v6_0
100
AcDbLine
 10
216.499
 20
225.184
 30
0.0
 11
216.528
 21
225.13
 31
0.0
  0
LINE
  5
6E8
330
70
100
AcDbEntity
  8
팀플 평면 최종 v6_0
100
AcDbLine
 10
246.658
 20
228.115
 30
0.0
 11
246.6890000000001
 21
228.1
 31
0.0
  0
LINE
  5
6E9
330
70
100
AcDbEntity
  8
팀플 평면 최종 v6_0
100
AcDbLine
 10
198.699
 20
228.111
 30
0.0
 11
198.684
 21
228.142
 31
0.0
  0
LINE
  5
6EA
330
70
100
AcDbEntity
  8
팀플 평면 최종 v6_0
100
AcDbLine
 10
198.67
 20
225.13
 30
0.0
 11
198.699
 21
225.184
 31
0.0
  0
LINE
  5
6EB
330
70
100
AcDbEntity
  8
팀플 평면 최종 v6_0
100
AcDbLine
 10
246.6890000000001
 20
228.1
 30
0.0
 11
246.701
 21
228.1
 31
0.0
  0
LINE
  5
6EC
330
70
100
AcDbEntity
  8
팀플 평면 최종 v6_0
100
AcDbLine
 10
222.7
 20
228.1
 30
0.0
 11
228.501
 21
228.1
 31
0.0
  0
LINE
  5
6ED
330
70
100
AcDbEntity
  8
팀플 평면 최종 v6_0
100
AcDbLine
 10
228.501
 20
225.184
 30
0.0
 11
228.53
 21
225.13
 31
0.0
  0
LINE
  5
6EE
330
70
100
AcDbEntity
  8
팀플 평면 최종 v6_0
100
AcDbLine
 10
246.67
 20
225.13
 30
0.0
 11
246.701
 21
225.184
 31
0.0
  0
LINE
  5
6EF
330
70
100
AcDbEntity
  8
팀플 평면 최종 v6_0
100
AcDbLine
 10
228.501
 20
228.111
 30
0.0
 11
228.501
 21
228.1
 31
0.0
  0
LINE
  5
6F0
330
70
100
AcDbEntity
  8
팀플 평면 최종 v6_0
100
AcDbLine
 10
252.499
 20
228.1
 30
0.0
 11
252.509
 21
228.1
 31
0.0
  0
LINE
  5
6F1
330
70
100
AcDbEntity
  8
팀플 평면 최종 v6_0
100
AcDbLine
 10
252.513
 20
228.142
 30
0.0
 11
252.499
 21
228.111
 31
0.0
  0
LINE
  5
6F2
330
70
100
AcDbEntity
  8
팀플 평면 최종 v6_0
100
AcDbLine
 10
210.686
 20
228.142
 30
0.0
 11
210.662
 21
228.138
 31
0.0
  0
LINE
  5
6F3
330
70
100
AcDbEntity
  8
팀플 평면 최종 v6_0
100
AcDbLine
 10
222.67
 20
225.13
 30
0.0
 11
222.7
 21
225.184
 31
0.0
  0
LINE
  5
6F4
330
70
100
AcDbEntity
  8
팀플 평면 최종 v6_0
100
AcDbLine
 10
192.6
 20
225.1
 30
0.0
 11
198.6
 21
225.1
 31
0.0
  0
LINE
  5
6F5
330
70
100
AcDbEntity
  8
팀플 평면 최종 v6_0
100
AcDbLine
 10
204.5
 20
225.2
 30
0.0
 11
204.5
 21
225.184
 31
0.0
  0
LINE
  5
6F6
330
70
100
AcDbEntity
  8
팀플 평면 최종 v6_0
100
AcDbLine
 10
204.513
 20
228.142
 30
0.0
 11
204.5
 21
228.111
 31
0.0
  0
LINE
  5
6F7
330
70
100
AcDbEntity
  8
팀플 평면 최종 v6_0
100
AcDbLine
 10
210.701
 20
228.1
 30
0.0
 11
216.499
 21
228.1
 31
0.0
  0
LINE
  5
6F8
330
70
100
AcDbEntity
  8
팀플 평면 최종 v6_0
100
AcDbLine
 10
216.6
 20
225.1
 30
0.0
 11
222.6
 21
225.1
 31
0.0
  0
LINE
  5
6F9
330
70
100
AcDbEntity
  8
팀플 평면 최종 v6_0
100
AcDbLine
 10
216.499
 20
228.1
 30
0.0
 11
216.499
 21
225.2
 31
0.0
  0
LINE
  5
6FA
330
70
100
AcDbEntity
  8
팀플 평면 최종 v6_0
100
AcDbLine
 10
198.657
 20
228.115
 30
0.0
 11
198.688
 21
228.1
 31
0.0
  0
LINE
  5
6FB
330
70
100
AcDbEntity
  8
팀플 평면 최종 v6_0
100
AcDbLine
 10
204.5
 20
225.184
 30
0.0
 11
204.529
 21
225.13
 31
0.0
  0
LINE
  5
6FC
330
70
100
AcDbEntity
  8
팀플 평면 최종 v6_0
100
AcDbLine
 10
198.6
 20
225.1
 30
0.0
 11
198.617
 21
225.1
 31
0.0
  0
LINE
  5
6FD
330
70
100
AcDbEntity
  8
팀플 평면 최종 v6_0
100
AcDbLine
 10
198.699
 20
225.2
 30
0.0
 11
198.699
 21
228.1
 31
0.0
  0
LINE
  5
6FE
330
70
100
AcDbEntity
  8
팀플 평면 최종 v6_0
100
AcDbLine
 10
228.51
 20
228.1
 30
0.0
 11
228.542
 21
228.115
 31
0.0
  0
LINE
  5
6FF
330
70
100
AcDbEntity
  8
팀플 평면 최종 v6_0
100
AcDbLine
 10
258.7
 20
228.1
 30
0.0
 11
258.7
 21
228.111
 31
0.0
  0
LINE
  5
700
330
70
100
AcDbEntity
  8
팀플 평면 최종 v6_0
100
AcDbLine
 10
258.7
 20
225.2
 30
0.0
 11
258.7
 21
228.1
 31
0.0
  0
LINE
  5
701
330
70
100
AcDbEntity
  8
팀플 평면 최종 v6_0
100
AcDbLine
 10
246.701
 20
228.1
 30
0.0
 11
252.4990000000001
 21
228.1
 31
0.0
  0
LINE
  5
702
330
70
100
AcDbEntity
  8
팀플 평면 최종 v6_0
100
AcDbLine
 10
210.616
 20
225.1
 30
0.0
 11
210.67
 21
225.13
 31
0.0
  0
LINE
  5
703
330
70
100
AcDbEntity
  8
팀플 평면 최종 v6_0
100
AcDbLine
 10
234.658
 20
228.115
 30
0.0
 11
234.69
 21
228.1
 31
0.0
  0
LINE
  5
704
330
70
100
AcDbEntity
  8
팀플 평면 최종 v6_0
100
AcDbLine
 10
204.6
 20
225.1
 30
0.0
 11
210.6
 21
225.1
 31
0.0
  0
LINE
  5
705
330
70
100
AcDbEntity
  8
팀플 평면 최종 v6_0
100
AcDbLine
 10
234.67
 20
225.13
 30
0.0
 11
234.701
 21
225.184
 31
0.0
  0
LINE
  5
706
330
70
100
AcDbEntity
  8
팀플 평면 최종 v6_0
100
AcDbLine
 10
222.7
 20
228.111
 30
0.0
 11
222.685
 21
228.142
 31
0.0
  0
LINE
  5
707
330
70
100
AcDbEntity
  8
팀플 평면 최종 v6_0
100
AcDbLine
 10
234.617
 20
225.1
 30
0.0
 11
234.67
 21
225.13
 31
0.0
  0
LINE
  5
708
330
70
100
AcDbEntity
  8
팀플 평면 최종 v6_0
100
AcDbLine
 10
222.6
 20
225.1
 30
0.0
 11
222.6170000000001
 21
225.1
 31
0.0
  0
LINE
  5
709
330
70
100
AcDbEntity
  8
팀플 평면 최종 v6_0
100
AcDbLine
 10
222.658
 20
228.115
 30
0.0
 11
222.69
 21
228.1
 31
0.0
  0
LINE
  5
70A
330
70
100
AcDbEntity
  8
팀플 평면 최종 v6_0
100
AcDbLine
 10
210.701
 20
228.111
 30
0.0
 11
210.686
 21
228.142
 31
0.0
  0
LINE
  5
70B
330
70
100
AcDbEntity
  8
팀플 평면 최종 v6_0
100
AcDbLine
 10
204.5
 20
228.1
 30
0.0
 11
204.509
 21
228.1
 31
0.0
  0
LINE
  5
70C
330
70
100
AcDbEntity
  8
팀플 평면 최종 v6_0
100
AcDbLine
 10
204.582
 20
225.1
 30
0.0
 11
204.6
 21
225.1
 31
0.0
  0
LINE
  5
70D
330
70
100
AcDbEntity
  8
팀플 평면 최종 v6_0
100
AcDbLine
 10
210.662
 20
228.138
 30
0.0
 11
210.658
 21
228.115
 31
0.0
  0
LINE
  5
70E
330
70
100
AcDbEntity
  8
팀플 평면 최종 v6_0
100
AcDbLine
 10
198.699
 20
225.184
 30
0.0
 11
198.699
 21
225.2
 31
0.0
  0
LINE
  5
70F
330
70
100
AcDbEntity
  8
팀플 평면 최종 v6_0
100
AcDbLine
 10
198.699
 20
228.1
 30
0.0
 11
204.5
 21
228.1
 31
0.0
  0
LINE
  5
710
330
70
100
AcDbEntity
  8
팀플 평면 최종 v6_0
100
AcDbLine
 10
222.662
 20
228.138
 30
0.0
 11
222.658
 21
228.115
 31
0.0
  0
LINE
  5
711
330
70
100
AcDbEntity
  8
팀플 평면 최종 v6_0
100
AcDbLine
 10
228.53
 20
225.13
 30
0.0
 11
228.582
 21
225.1
 31
0.0
  0
LINE
  5
712
330
70
100
AcDbEntity
  8
팀플 평면 최종 v6_0
100
AcDbLine
 10
228.582
 20
225.1
 30
0.0
 11
228.6
 21
225.1
 31
0.0
  0
LINE
  5
713
330
70
100
AcDbEntity
  8
팀플 평면 최종 v6_0
100
AcDbLine
 10
252.499
 20
225.2
 30
0.0
 11
252.499
 21
225.184
 31
0.0
  0
LINE
  5
714
330
70
100
AcDbEntity
  8
팀플 평면 최종 v6_0
100
AcDbLine
 10
222.7
 20
228.1
 30
0.0
 11
222.7
 21
228.111
 31
0.0
  0
LINE
  5
715
330
70
100
AcDbEntity
  8
팀플 평면 최종 v6_0
100
AcDbLine
 10
204.529
 20
225.13
 30
0.0
 11
204.582
 21
225.1
 31
0.0
  0
LINE
  5
716
330
70
100
AcDbEntity
  8
팀플 평면 최종 v6_0
100
AcDbLine
 10
234.685
 20
228.142
 30
0.0
 11
234.662
 21
228.138
 31
0.0
  0
LINE
  5
717
330
70
100
AcDbEntity
  8
팀플 평면 최종 v6_0
100
AcDbLine
 10
210.701
 20
228.1
 30
0.0
 11
210.701
 21
228.111
 31
0.0
  0
LINE
  5
718
330
70
100
AcDbEntity
  8
팀플 평면 최종 v6_0
100
AcDbLine
 10
222.6170000000001
 20
225.1
 30
0.0
 11
222.67
 21
225.13
 31
0.0
  0
LINE
  5
719
330
70
100
AcDbEntity
  8
팀플 평면 최종 v6_0
100
AcDbLine
 10
192.582
 20
225.1
 30
0.0
 11
192.6
 21
225.1
 31
0.0
  0
LINE
  5
71A
330
70
100
AcDbEntity
  8
팀플 평면 최종 v6_0
100
AcDbLine
 10
258.6
 20
225.1
 30
0.0
 11
258.616
 21
225.1
 31
0.0
  0
LINE
  5
71B
330
70
100
AcDbEntity
  8
팀플 평면 최종 v6_0
100
AcDbLine
 10
240.4990000000001
 20
228.111
 30
0.0
 11
240.4990000000001
 21
228.1
 31
0.0
  0
LINE
  5
71C
330
70
100
AcDbEntity
  8
팀플 평면 최종 v6_0
100
AcDbLine
 10
252.528
 20
225.13
 30
0.0
 11
252.582
 21
225.1
 31
0.0
  0
LINE
  5
71D
330
70
100
AcDbEntity
  8
팀플 평면 최종 v6_0
100
AcDbLine
 10
240.513
 20
228.142
 30
0.0
 11
240.499
 21
228.111
 31
0.0
  0
LINE
  5
71E
330
70
100
AcDbEntity
  8
팀플 평면 최종 v6_0
100
AcDbLine
 10
252.5370000000001
 20
228.138
 30
0.0
 11
252.513
 21
228.142
 31
0.0
  0
LINE
  5
71F
330
70
100
AcDbEntity
  8
팀플 평면 최종 v6_0
100
AcDbLine
 10
222.69
 20
228.1
 30
0.0
 11
222.7
 21
228.1
 31
0.0
  0
LINE
  5
720
330
70
100
AcDbEntity
  8
팀플 평면 최종 v6_0
100
AcDbLine
 10
198.684
 20
228.142
 30
0.0
 11
198.662
 21
228.138
 31
0.0
  0
LINE
  5
721
330
70
100
AcDbEntity
  8
팀플 평면 최종 v6_0
100
AcDbLine
 10
234.701
 20
225.2
 30
0.0
 11
234.701
 21
228.1
 31
0.0
  0
LINE
  5
722
330
70
100
AcDbEntity
  8
팀플 평면 최종 v6_0
100
AcDbLine
 10
198.617
 20
225.1
 30
0.0
 11
198.67
 21
225.13
 31
0.0
  0
LINE
  5
723
330
70
100
AcDbEntity
  8
팀플 평면 최종 v6_0
100
AcDbLine
 10
282.2
 20
236.101
 30
0.0
 11
282.2
 21
236.112
 31
0.0
  0
LINE
  5
724
330
70
100
AcDbEntity
  8
팀플 평면 최종 v6_0
100
AcDbLine
 10
240.528
 20
225.13
 30
0.0
 11
240.582
 21
225.1
 31
0.0
  0
LINE
  5
725
330
70
100
AcDbEntity
  8
팀플 평면 최종 v6_0
100
AcDbLine
 10
246.686
 20
228.142
 30
0.0
 11
246.662
 21
228.138
 31
0.0
  0
LINE
  5
726
330
70
100
AcDbEntity
  8
팀플 평면 최종 v6_0
100
AcDbLine
 10
228.501
 20
228.1
 30
0.0
 11
228.51
 21
228.1
 31
0.0
  0
LINE
  5
727
330
70
100
AcDbEntity
  8
팀플 평면 최종 v6_0
100
AcDbLine
 10
264.582
 20
225.1
 30
0.0
 11
264.6
 21
225.1
 31
0.0
  0
LINE
  5
728
330
70
100
AcDbEntity
  8
팀플 평면 최종 v6_0
100
AcDbLine
 10
270.662
 20
228.138
 30
0.0
 11
270.658
 21
228.115
 31
0.0
  0
LINE
  5
729
330
70
100
AcDbEntity
  8
팀플 평면 최종 v6_0
100
AcDbLine
 10
258.616
 20
225.1
 30
0.0
 11
258.67
 21
225.13
 31
0.0
  0
LINE
  5
72A
330
70
100
AcDbEntity
  8
팀플 평면 최종 v6_0
100
AcDbLine
 10
246.662
 20
228.138
 30
0.0
 11
246.658
 21
228.115
 31
0.0
  0
LINE
  5
72B
330
70
100
AcDbEntity
  8
팀플 평면 최종 v6_0
100
AcDbLine
 10
282.1890000000001
 20
236.101
 30
0.0
 11
282.2
 21
236.101
 31
0.0
  0
LINE
  5
72C
330
70
100
AcDbEntity
  8
팀플 평면 최종 v6_0
100
AcDbLine
 10
228.501
 20
225.2
 30
0.0
 11
228.501
 21
225.184
 31
0.0
  0
LINE
  5
72D
330
70
100
AcDbEntity
  8
팀플 평면 최종 v6_0
100
AcDbLine
 10
210.67
 20
225.13
 30
0.0
 11
210.701
 21
225.184
 31
0.0
  0
LINE
  5
72E
330
70
100
AcDbEntity
  8
팀플 평면 최종 v6_0
100
AcDbLine
 10
282.185
 20
236.143
 30
0.0
 11
282.162
 21
236.138
 31
0.0
  0
LINE
  5
72F
330
70
100
AcDbEntity
  8
팀플 평면 최종 v6_0
100
AcDbLine
 10
252.499
 20
228.1
 30
0.0
 11
252.499
 21
225.2
 31
0.0
  0
LINE
  5
730
330
70
100
AcDbEntity
  8
팀플 평면 최종 v6_0
100
AcDbLine
 10
285.116
 20
236.101
 30
0.0
 11
285.17
 21
236.13
 31
0.0
  0
LINE
  5
731
330
70
100
AcDbEntity
  8
팀플 평면 최종 v6_0
100
AcDbLine
 10
246.701
 20
225.2
 30
0.0
 11
246.701
 21
228.1
 31
0.0
  0
LINE
  5
732
330
70
100
AcDbEntity
  8
팀플 평면 최종 v6_0
100
AcDbLine
 10
204.541
 20
228.115
 30
0.0
 11
204.537
 21
228.138
 31
0.0
  0
LINE
  5
733
330
70
100
AcDbEntity
  8
팀플 평면 최종 v6_0
100
AcDbLine
 10
240.509
 20
228.1
 30
0.0
 11
240.541
 21
228.115
 31
0.0
  0
LINE
  5
734
330
70
100
AcDbEntity
  8
팀플 평면 최종 v6_0
100
AcDbLine
 10
240.4990000000001
 20
225.184
 30
0.0
 11
240.528
 21
225.13
 31
0.0
  0
LINE
  5
735
330
70
100
AcDbEntity
  8
팀플 평면 최종 v6_0
100
AcDbLine
 10
270.685
 20
228.142
 30
0.0
 11
270.662
 21
228.138
 31
0.0
  0
LINE
  5
736
330
70
100
AcDbEntity
  8
팀플 평면 최종 v6_0
100
AcDbLine
 10
252.582
 20
225.1
 30
0.0
 11
252.6
 21
225.1
 31
0.0
  0
LINE
  5
737
330
70
100
AcDbEntity
  8
팀플 평면 최종 v6_0
100
AcDbLine
 10
234.662
 20
228.138
 30
0.0
 11
234.658
 21
228.115
 31
0.0
  0
LINE
  5
738
330
70
100
AcDbEntity
  8
팀플 평면 최종 v6_0
100
AcDbLine
 10
210.6
 20
225.1
 30
0.0
 11
210.616
 21
225.1
 31
0.0
  0
LINE
  5
739
330
70
100
AcDbEntity
  8
팀플 평면 최종 v6_0
100
AcDbLine
 10
222.7
 20
225.184
 30
0.0
 11
222.7
 21
225.2
 31
0.0
  0
LINE
  5
73A
330
70
100
AcDbEntity
  8
팀플 평면 최종 v6_0
100
AcDbLine
 10
204.537
 20
228.138
 30
0.0
 11
204.513
 21
228.142
 31
0.0
  0
LINE
  5
73B
330
70
100
AcDbEntity
  8
팀플 평면 최종 v6_0
100
AcDbLine
 10
240.6
 20
225.1
 30
0.0
 11
246.6
 21
225.1
 31
0.0
  0
LINE
  5
73C
330
70
100
AcDbEntity
  8
팀플 평면 최종 v6_0
100
AcDbLine
 10
285.17
 20
236.13
 30
0.0
 11
285.2
 21
236.183
 31
0.0
  0
LINE
  5
73D
330
70
100
AcDbEntity
  8
팀플 평면 최종 v6_0
100
AcDbLine
 10
246.616
 20
225.1
 30
0.0
 11
246.67
 21
225.13
 31
0.0
  0
LINE
  5
73E
330
70
100
AcDbEntity
  8
팀플 평면 최종 v6_0
100
AcDbLine
 10
258.662
 20
228.138
 30
0.0
 11
258.658
 21
228.115
 31
0.0
  0
LINE
  5
73F
330
70
100
AcDbEntity
  8
팀플 평면 최종 v6_0
100
AcDbLine
 10
246.6
 20
225.1
 30
0.0
 11
246.616
 21
225.1
 31
0.0
  0
LINE
  5
740
330
70
100
AcDbEntity
  8
팀플 평면 최종 v6_0
100
AcDbLine
 10
282.157
 20
236.116
 30
0.0
 11
282.1890000000001
 21
236.101
 31
0.0
  0
LINE
  5
741
330
70
100
AcDbEntity
  8
팀플 평면 최종 v6_0
100
AcDbLine
 10
234.701
 20
225.184
 30
0.0
 11
234.701
 21
225.2
 31
0.0
  0
LINE
  5
742
330
70
100
AcDbEntity
  8
팀플 평면 최종 v6_0
100
AcDbLine
 10
252.499
 20
228.111
 30
0.0
 11
252.499
 21
228.1
 31
0.0
  0
LINE
  5
743
330
70
100
AcDbEntity
  8
팀플 평면 최종 v6_0
100
AcDbLine
 10
204.509
 20
228.1
 30
0.0
 11
204.541
 21
228.115
 31
0.0
  0
LINE
  5
744
330
70
100
AcDbEntity
  8
팀플 평면 최종 v6_0
100
AcDbLine
 10
258.6700000000001
 20
225.13
 30
0.0
 11
258.7000000000001
 21
225.184
 31
0.0
  0
LINE
  5
745
330
70
100
AcDbEntity
  8
팀플 평면 최종 v6_0
100
AcDbLine
 10
285.17
 20
242.272
 30
0.0
 11
285.116
 21
242.3000000000001
 31
0.0
  0
LINE
  5
746
330
70
100
AcDbEntity
  8
팀플 평면 최종 v6_0
100
AcDbLine
 10
270.617
 20
225.1
 30
0.0
 11
270.67
 21
225.13
 31
0.0
  0
LINE
  5
747
330
70
100
AcDbEntity
  8
팀플 평면 최종 v6_0
100
AcDbLine
 10
228.6
 20
225.1
 30
0.0
 11
234.6
 21
225.1
 31
0.0
  0
LINE
  5
748
330
70
100
AcDbEntity
  8
팀플 평면 최종 v6_0
100
AcDbLine
 10
246.701
 20
225.184
 30
0.0
 11
246.701
 21
225.2
 31
0.0
  0
LINE
  5
749
330
70
100
AcDbEntity
  8
팀플 평면 최종 v6_0
100
AcDbLine
 10
240.537
 20
228.138
 30
0.0
 11
240.513
 21
228.142
 31
0.0
  0
LINE
  5
74A
330
70
100
AcDbEntity
  8
팀플 평면 최종 v6_0
100
AcDbLine
 10
282.2
 20
228.184
 30
0.0
 11
282.2
 21
228.2
 31
0.0
  0
LINE
  5
74B
330
70
100
AcDbEntity
  8
팀플 평면 최종 v6_0
100
AcDbLine
 10
282.116
 20
228.1
 30
0.0
 11
282.17
 21
228.13
 31
0.0
  0
LINE
  5
74C
330
70
100
AcDbEntity
  8
팀플 평면 최종 v6_0
100
AcDbLine
 10
246.701
 20
228.1
 30
0.0
 11
246.701
 21
228.111
 31
0.0
  0
LINE
  5
74D
330
70
100
AcDbEntity
  8
팀플 평면 최종 v6_0
100
AcDbLine
 10
252.509
 20
228.1
 30
0.0
 11
252.541
 21
228.115
 31
0.0
  0
LINE
  5
74E
330
70
100
AcDbEntity
  8
팀플 평면 최종 v6_0
100
AcDbLine
 10
258.7
 20
228.111
 30
0.0
 11
258.685
 21
228.142
 31
0.0
  0
LINE
  5
74F
330
70
100
AcDbEntity
  8
팀플 평면 최종 v6_0
100
AcDbLine
 10
264.501
 20
228.1
 30
0.0
 11
264.501
 21
225.2
 31
0.0
  0
LINE
  5
750
330
70
100
AcDbEntity
  8
팀플 평면 최종 v6_0
100
AcDbLine
 10
210.701
 20
225.184
 30
0.0
 11
210.701
 21
225.2
 31
0.0
  0
LINE
  5
751
330
70
100
AcDbEntity
  8
팀플 평면 최종 v6_0
100
AcDbLine
 10
198.699
 20
228.1
 30
0.0
 11
198.699
 21
228.111
 31
0.0
  0
LINE
  5
752
330
70
100
AcDbEntity
  8
팀플 평면 최종 v6_0
100
AcDbLine
 10
234.701
 20
228.1
 30
0.0
 11
240.4990000000001
 21
228.1
 31
0.0
  0
LINE
  5
753
330
70
100
AcDbEntity
  8
팀플 평면 최종 v6_0
100
AcDbLine
 10
270.701
 20
225.2
 30
0.0
 11
270.701
 21
228.1
 31
0.0
  0
LINE
  5
754
330
70
100
AcDbEntity
  8
팀플 평면 최종 v6_0
100
AcDbLine
 10
270.6
 20
225.1
 30
0.0
 11
270.617
 21
225.1
 31
0.0
  0
LINE
  5
755
330
70
100
AcDbEntity
  8
팀플 평면 최종 v6_0
100
AcDbLine
 10
240.582
 20
225.1
 30
0.0
 11
240.6
 21
225.1
 31
0.0
  0
LINE
  5
756
330
70
100
AcDbEntity
  8
팀플 평면 최종 v6_0
100
AcDbLine
 10
228.515
 20
228.142
 30
0.0
 11
228.501
 21
228.111
 31
0.0
  0
LINE
  5
757
330
70
100
AcDbEntity
  8
팀플 평면 최종 v6_0
100
AcDbLine
 10
240.4990000000001
 20
228.1
 30
0.0
 11
240.4990000000001
 21
225.2
 31
0.0
  0
LINE
  5
758
330
70
100
AcDbEntity
  8
팀플 평면 최종 v6_0
100
AcDbLine
 10
234.69
 20
228.1
 30
0.0
 11
234.701
 21
228.1
 31
0.0
  0
LINE
  5
759
330
70
100
AcDbEntity
  8
팀플 평면 최종 v6_0
100
AcDbLine
 10
240.4990000000001
 20
225.2
 30
0.0
 11
240.4990000000001
 21
225.184
 31
0.0
  0
LINE
  5
75A
330
70
100
AcDbEntity
  8
팀플 평면 최종 v6_0
100
AcDbLine
 10
228.501
 20
228.1
 30
0.0
 11
228.501
 21
225.2
 31
0.0
  0
LINE
  5
75B
330
70
100
AcDbEntity
  8
팀플 평면 최종 v6_0
100
AcDbLine
 10
285.2
 20
236.2
 30
0.0
 11
285.2
 21
242.2
 31
0.0
  0
LINE
  5
75C
330
70
100
AcDbEntity
  8
팀플 평면 최종 v6_0
100
AcDbLine
 10
282.2
 20
228.2
 30
0.0
 11
282.2
 21
236.101
 31
0.0
  0
LINE
  5
75D
330
70
100
AcDbEntity
  8
팀플 평면 최종 v6_0
100
AcDbLine
 10
282.2
 20
242.291
 30
0.0
 11
282.2
 21
242.3
 31
0.0
  0
LINE
  5
75E
330
70
100
AcDbEntity
  8
팀플 평면 최종 v6_0
100
AcDbLine
 10
252.499
 20
225.184
 30
0.0
 11
252.528
 21
225.13
 31
0.0
  0
LINE
  5
75F
330
70
100
AcDbEntity
  8
팀플 평면 최종 v6_0
100
AcDbLine
 10
285.099
 20
242.3
 30
0.0
 11
282.2
 21
242.3
 31
0.0
  0
LINE
  5
760
330
70
100
AcDbEntity
  8
팀플 평면 최종 v6_0
100
AcDbLine
 10
285.2
 20
236.183
 30
0.0
 11
285.2
 21
236.2
 31
0.0
  0
LINE
  5
761
330
70
100
AcDbEntity
  8
팀플 평면 최종 v6_0
100
AcDbLine
 10
282.099
 20
228.1
 30
0.0
 11
282.116
 21
228.1
 31
0.0
  0
LINE
  5
762
330
70
100
AcDbEntity
  8
팀플 평면 최종 v6_0
100
AcDbLine
 10
264.53
 20
225.13
 30
0.0
 11
264.582
 21
225.1
 31
0.0
  0
LINE
  5
763
330
70
100
AcDbEntity
  8
팀플 평면 최종 v6_0
100
AcDbLine
 10
258.689
 20
228.1
 30
0.0
 11
258.7
 21
228.1
 31
0.0
  0
LINE
  5
764
330
70
100
AcDbEntity
  8
팀플 평면 최종 v6_0
100
AcDbLine
 10
270.701
 20
228.1
 30
0.0
 11
282.099
 21
228.1
 31
0.0
  0
LINE
  5
765
330
70
100
AcDbEntity
  8
팀플 평면 최종 v6_0
100
AcDbLine
 10
282.162
 20
242.263
 30
0.0
 11
282.185
 21
242.259
 31
0.0
  0
LINE
  5
766
330
70
100
AcDbEntity
  8
팀플 평면 최종 v6_0
100
AcDbLine
 10
282.185
 20
242.259
 30
0.0
 11
282.2
 21
242.291
 31
0.0
  0
LINE
  5
767
330
70
100
AcDbEntity
  8
팀플 평면 최종 v6_0
100
AcDbLine
 10
228.538
 20
228.138
 30
0.0
 11
228.5150000000001
 21
228.142
 31
0.0
  0
LINE
  5
768
330
70
100
AcDbEntity
  8
팀플 평면 최종 v6_0
100
AcDbLine
 10
234.701
 20
228.1
 30
0.0
 11
234.701
 21
228.111
 31
0.0
  0
LINE
  5
769
330
70
100
AcDbEntity
  8
팀플 평면 최종 v6_0
100
AcDbLine
 10
264.501
 20
225.184
 30
0.0
 11
264.53
 21
225.13
 31
0.0
  0
LINE
  5
76A
330
70
100
AcDbEntity
  8
팀플 평면 최종 v6_0
100
AcDbLine
 10
270.658
 20
228.115
 30
0.0
 11
270.69
 21
228.1
 31
0.0
  0
LINE
  5
76B
330
70
100
AcDbEntity
  8
팀플 평면 최종 v6_0
100
AcDbLine
 10
285.2
 20
242.218
 30
0.0
 11
285.17
 21
242.272
 31
0.0
  0
LINE
  5
76C
330
70
100
AcDbEntity
  8
팀플 평면 최종 v6_0
100
AcDbLine
 10
282.2
 20
242.3
 30
0.0
 11
282.2
 21
248.1
 31
0.0
  0
LINE
  5
76D
330
70
100
AcDbEntity
  8
팀플 평면 최종 v6_0
100
AcDbLine
 10
264.501
 20
225.2
 30
0.0
 11
264.501
 21
225.184
 31
0.0
  0
LINE
  5
76E
330
70
100
AcDbEntity
  8
팀플 평면 최종 v6_0
100
AcDbLine
 10
240.4990000000001
 20
228.1
 30
0.0
 11
240.509
 21
228.1
 31
0.0
  0
LINE
  5
76F
330
70
100
AcDbEntity
  8
팀플 평면 최종 v6_0
100
AcDbLine
 10
285.099
 20
236.101
 30
0.0
 11
285.1160000000001
 21
236.101
 31
0.0
  0
LINE
  5
770
330
70
100
AcDbEntity
  8
팀플 평면 최종 v6_0
100
AcDbLine
 10
228.542
 20
228.115
 30
0.0
 11
228.538
 21
228.138
 31
0.0
  0
LINE
  5
771
330
70
100
AcDbEntity
  8
팀플 평면 최종 v6_0
100
AcDbLine
 10
264.515
 20
228.142
 30
0.0
 11
264.501
 21
228.111
 31
0.0
  0
LINE
  5
772
330
70
100
AcDbEntity
  8
팀플 평면 최종 v6_0
100
AcDbLine
 10
282.2
 20
248.112
 30
0.0
 11
282.185
 21
248.143
 31
0.0
  0
LINE
  5
773
330
70
100
AcDbEntity
  8
팀플 평면 최종 v6_0
100
AcDbLine
 10
285.2
 20
242.2
 30
0.0
 11
285.2
 21
242.218
 31
0.0
  0
LINE
  5
774
330
70
100
AcDbEntity
  8
팀플 평면 최종 v6_0
100
AcDbLine
 10
270.67
 20
225.13
 30
0.0
 11
270.701
 21
225.184
 31
0.0
  0
LINE
  5
775
330
70
100
AcDbEntity
  8
팀플 평면 최종 v6_0
100
AcDbLine
 10
282.157
 20
242.287
 30
0.0
 11
282.162
 21
242.263
 31
0.0
  0
LINE
  5
776
330
70
100
AcDbEntity
  8
팀플 평면 최종 v6_0
100
AcDbLine
 10
258.658
 20
228.115
 30
0.0
 11
258.689
 21
228.1
 31
0.0
  0
LINE
  5
777
330
70
100
AcDbEntity
  8
팀플 평면 최종 v6_0
100
AcDbLine
 10
264.501
 20
228.1
 30
0.0
 11
264.51
 21
228.1
 31
0.0
  0
LINE
  5
778
330
70
100
AcDbEntity
  8
팀플 평면 최종 v6_0
100
AcDbLine
 10
270.69
 20
228.1
 30
0.0
 11
270.701
 21
228.1
 31
0.0
  0
LINE
  5
779
330
70
100
AcDbEntity
  8
팀플 평면 최종 v6_0
100
AcDbLine
 10
270.701
 20
228.1
 30
0.0
 11
270.701
 21
228.111
 31
0.0
  0
LINE
  5
77A
330
70
100
AcDbEntity
  8
팀플 평면 최종 v6_0
100
AcDbLine
 10
264.501
 20
228.111
 30
0.0
 11
264.501
 21
228.1
 31
0.0
  0
LINE
  5
77B
330
70
100
AcDbEntity
  8
팀플 평면 최종 v6_0
100
AcDbLine
 10
252.541
 20
228.115
 30
0.0
 11
252.537
 21
228.138
 31
0.0
  0
LINE
  5
77C
330
70
100
AcDbEntity
  8
팀플 평면 최종 v6_0
100
AcDbLine
 10
282.185
 20
248.143
 30
0.0
 11
282.162
 21
248.138
 31
0.0
  0
LINE
  5
77D
330
70
100
AcDbEntity
  8
팀플 평면 최종 v6_0
100
AcDbLine
 10
270.701
 20
225.184
 30
0.0
 11
270.701
 21
225.2
 31
0.0
  0
LINE
  5
77E
330
70
100
AcDbEntity
  8
팀플 평면 최종 v6_0
100
AcDbLine
 10
234.701
 20
228.111
 30
0.0
 11
234.685
 21
228.142
 31
0.0
  0
LINE
  5
77F
330
70
100
AcDbEntity
  8
팀플 평면 최종 v6_0
100
AcDbLine
 10
264.542
 20
228.115
 30
0.0
 11
264.538
 21
228.138
 31
0.0
  0
LINE
  5
780
330
70
100
AcDbEntity
  8
팀플 평면 최종 v6_0
100
AcDbLine
 10
282.2
 20
236.112
 30
0.0
 11
282.185
 21
236.143
 31
0.0
  0
LINE
  5
781
330
70
100
AcDbEntity
  8
팀플 평면 최종 v6_0
100
AcDbLine
 10
282.1890000000001
 20
242.3
 30
0.0
 11
282.157
 21
242.287
 31
0.0
  0
LINE
  5
782
330
70
100
AcDbEntity
  8
팀플 평면 최종 v6_0
100
AcDbLine
 10
264.538
 20
228.138
 30
0.0
 11
264.515
 21
228.142
 31
0.0
  0
LINE
  5
783
330
70
100
AcDbEntity
  8
팀플 평면 최종 v6_0
100
AcDbLine
 10
246.701
 20
228.111
 30
0.0
 11
246.686
 21
228.142
 31
0.0
  0
LINE
  5
784
330
70
100
AcDbEntity
  8
팀플 평면 최종 v6_0
100
AcDbLine
 10
264.6
 20
225.1
 30
0.0
 11
270.6
 21
225.1
 31
0.0
  0
LINE
  5
785
330
70
100
AcDbEntity
  8
팀플 평면 최종 v6_0
100
AcDbLine
 10
285.116
 20
242.3
 30
0.0
 11
285.099
 21
242.3
 31
0.0
  0
LINE
  5
786
330
70
100
AcDbEntity
  8
팀플 평면 최종 v6_0
100
AcDbLine
 10
252.6
 20
225.1
 30
0.0
 11
258.6
 21
225.1
 31
0.0
  0
LINE
  5
787
330
70
100
AcDbEntity
  8
팀플 평면 최종 v6_0
100
AcDbLine
 10
270.701
 20
228.111
 30
0.0
 11
270.685
 21
228.142
 31
0.0
  0
LINE
  5
788
330
70
100
AcDbEntity
  8
팀플 평면 최종 v6_0
100
AcDbLine
 10
258.7
 20
225.184
 30
0.0
 11
258.7
 21
225.2
 31
0.0
  0
LINE
  5
789
330
70
100
AcDbEntity
  8
팀플 평면 최종 v6_0
100
AcDbLine
 10
234.6
 20
225.1
 30
0.0
 11
234.617
 21
225.1
 31
0.0
  0
LINE
  5
78A
330
70
100
AcDbEntity
  8
팀플 평면 최종 v6_0
100
AcDbLine
 10
258.7
 20
228.1
 30
0.0
 11
264.501
 21
228.1
 31
0.0
  0
LINE
  5
78B
330
70
100
AcDbEntity
  8
팀플 평면 최종 v6_0
100
AcDbLine
 10
282.162
 20
236.138
 30
0.0
 11
282.157
 21
236.116
 31
0.0
  0
LINE
  5
78C
330
70
100
AcDbEntity
  8
팀플 평면 최종 v6_0
100
AcDbLine
 10
282.2
 20
242.3
 30
0.0
 11
282.1890000000001
 21
242.3
 31
0.0
  0
LINE
  5
78D
330
70
100
AcDbEntity
  8
팀플 평면 최종 v6_0
100
AcDbLine
 10
264.51
 20
228.1
 30
0.0
 11
264.542
 21
228.115
 31
0.0
  0
LINE
  5
78E
330
70
100
AcDbEntity
  8
팀플 평면 최종 v6_0
100
AcDbLine
 10
282.162
 20
248.138
 30
0.0
 11
282.157
 21
248.116
 31
0.0
  0
LINE
  5
78F
330
70
100
AcDbEntity
  8
팀플 평면 최종 v6_0
100
AcDbLine
 10
240.541
 20
228.115
 30
0.0
 11
240.537
 21
228.138
 31
0.0
  0
LINE
  5
790
330
70
100
AcDbEntity
  8
팀플 평면 최종 v6_0
100
AcDbLine
 10
10.0004
 20
344.1830000000001
 30
0.0
 11
10.0294
 21
344.129
 31
0.0
  0
LINE
  5
791
330
70
100
AcDbEntity
  8
팀플 평면 최종 v6_0
100
AcDbLine
 10
285.2
 20
248.183
 30
0.0
 11
285.2
 21
248.2
 31
0.0
  0
LINE
  5
792
330
70
100
AcDbEntity
  8
팀플 평면 최종 v6_0
100
AcDbLine
 10
282.2
 20
272.101
 30
0.0
 11
282.2
 21
272.112
 31
0.0
  0
LINE
  5
793
330
70
100
AcDbEntity
  8
팀플 평면 최종 v6_0
100
AcDbLine
 10
285.116
 20
254.301
 30
0.0
 11
285.099
 21
254.301
 31
0.0
  0
LINE
  5
794
330
70
100
AcDbEntity
  8
팀플 평면 최종 v6_0
100
AcDbLine
 10
282.2
 20
248.1
 30
0.0
 11
282.2
 21
248.112
 31
0.0
  0
LINE
  5
795
330
70
100
AcDbEntity
  8
팀플 평면 최종 v6_0
100
AcDbLine
 10
285.116
 20
266.3
 30
0.0
 11
285.099
 21
266.3
 31
0.0
  0
LINE
  5
796
330
70
100
AcDbEntity
  8
팀플 평면 최종 v6_0
100
AcDbLine
 10
282.162
 20
260.138
 30
0.0
 11
282.157
 21
260.114
 31
0.0
  0
LINE
  5
797
330
70
100
AcDbEntity
  8
팀플 평면 최종 v6_0
100
AcDbLine
 10
282.157
 20
248.116
 30
0.0
 11
282.1890000000001
 21
248.1
 31
0.0
  0
LINE
  5
798
330
70
100
AcDbEntity
  8
팀플 평면 최종 v6_0
100
AcDbLine
 10
282.157
 20
278.287
 30
0.0
 11
282.162
 21
278.263
 31
0.0
  0
LINE
  5
799
330
70
100
AcDbEntity
  8
팀플 평면 최종 v6_0
100
AcDbLine
 10
285.2
 20
254.2
 30
0.0
 11
285.2
 21
254.218
 31
0.0
  0
LINE
  5
79A
330
70
100
AcDbEntity
  8
팀플 평면 최종 v6_0
100
AcDbLine
 10
282.17
 20
228.13
 30
0.0
 11
282.2
 21
228.184
 31
0.0
  0
LINE
  5
79B
330
70
100
AcDbEntity
  8
팀플 평면 최종 v6_0
100
AcDbLine
 10
258.685
 20
228.142
 30
0.0
 11
258.662
 21
228.138
 31
0.0
  0
LINE
  5
79C
330
70
100
AcDbEntity
  8
팀플 평면 최종 v6_0
100
AcDbLine
 10
285.2
 20
266.218
 30
0.0
 11
285.17
 21
266.271
 31
0.0
  0
LINE
  5
79D
330
70
100
AcDbEntity
  8
팀플 평면 최종 v6_0
100
AcDbLine
 10
285.17
 20
260.13
 30
0.0
 11
285.2
 21
260.183
 31
0.0
  0
LINE
  5
79E
330
70
100
AcDbEntity
  8
팀플 평면 최종 v6_0
100
AcDbLine
 10
282.2
 20
260.11
 30
0.0
 11
282.185
 21
260.142
 31
0.0
  0
LINE
  5
79F
330
70
100
AcDbEntity
  8
팀플 평면 최종 v6_0
100
AcDbLine
 10
285.17
 20
266.271
 30
0.0
 11
285.116
 21
266.3
 31
0.0
  0
LINE
  5
7A0
330
70
100
AcDbEntity
  8
팀플 평면 최종 v6_0
100
AcDbLine
 10
282.2
 20
254.291
 30
0.0
 11
282.2
 21
254.301
 31
0.0
  0
LINE
  5
7A1
330
70
100
AcDbEntity
  8
팀플 평면 최종 v6_0
100
AcDbLine
 10
285.17
 20
248.129
 30
0.0
 11
285.2
 21
248.183
 31
0.0
  0
LINE
  5
7A2
330
70
100
AcDbEntity
  8
팀플 평면 최종 v6_0
100
AcDbLine
 10
282.2
 20
254.301
 30
0.0
 11
282.1890000000001
 21
254.301
 31
0.0
  0
LINE
  5
7A3
330
70
100
AcDbEntity
  8
팀플 평면 최종 v6_0
100
AcDbLine
 10
285.099
 20
254.301
 30
0.0
 11
282.2
 21
254.301
 31
0.0
  0
LINE
  5
7A4
330
70
100
AcDbEntity
  8
팀플 평면 최종 v6_0
100
AcDbLine
 10
285.2
 20
272.2
 30
0.0
 11
285.2
 21
278.2
 31
0.0
  0
LINE
  5
7A5
330
70
100
AcDbEntity
  8
팀플 평면 최종 v6_0
100
AcDbLine
 10
285.116
 20
248.1
 30
0.0
 11
285.17
 21
248.129
 31
0.0
  0
LINE
  5
7A6
330
70
100
AcDbEntity
  8
팀플 평면 최종 v6_0
100
AcDbLine
 10
282.1890000000001
 20
248.1
 30
0.0
 11
282.2
 21
248.1
 31
0.0
  0
LINE
  5
7A7
330
70
100
AcDbEntity
  8
팀플 평면 최종 v6_0
100
AcDbLine
 10
285.2
 20
260.2
 30
0.0
 11
285.2
 21
266.2
 31
0.0
  0
LINE
  5
7A8
330
70
100
AcDbEntity
  8
팀플 평면 최종 v6_0
100
AcDbLine
 10
282.2
 20
254.301
 30
0.0
 11
282.2
 21
260.099
 31
0.0
  0
LINE
  5
7A9
330
70
100
AcDbEntity
  8
팀플 평면 최종 v6_0
100
AcDbLine
 10
282.185
 20
266.259
 30
0.0
 11
282.2
 21
266.291
 31
0.0
  0
LINE
  5
7AA
330
70
100
AcDbEntity
  8
팀플 평면 최종 v6_0
100
AcDbLine
 10
282.162
 20
278.263
 30
0.0
 11
282.185
 21
278.259
 31
0.0
  0
LINE
  5
7AB
330
70
100
AcDbEntity
  8
팀플 평면 최종 v6_0
100
AcDbLine
 10
282.2
 20
236.101
 30
0.0
 11
285.099
 21
236.101
 31
0.0
  0
LINE
  5
7AC
330
70
100
AcDbEntity
  8
팀플 평면 최종 v6_0
100
AcDbLine
 10
282.1890000000001
 20
266.3
 30
0.0
 11
282.157
 21
266.287
 31
0.0
  0
LINE
  5
7AD
330
70
100
AcDbEntity
  8
팀플 평면 최종 v6_0
100
AcDbLine
 10
282.157
 20
266.287
 30
0.0
 11
282.162
 21
266.263
 31
0.0
  0
LINE
  5
7AE
330
70
100
AcDbEntity
  8
팀플 평면 최종 v6_0
100
AcDbLine
 10
10.0294
 20
344.129
 30
0.0
 11
10.0817
 21
344.1
 31
0.0
  0
POINT
  5
7B0
330
70
100
AcDbEntity
  8
팀플 평면 최종 v6_Sketch2
100
AcDbPoint
 10
9.108149215866987
 20
4.004611184571515
 30
0.0
  0
POINT
  5
7B2
330
70
100
AcDbEntity
  8
팀플 평면 최종 v6_Sketch3
100
AcDbPoint
 10
0.0
 20
0.0
 30
0.0
  0
POINT
  5
7B4
330
70
100
AcDbEntity
  8
팀플 평면 최종 v6_Sketch4
100
AcDbPoint
 10
0.0
 20
0.0
 30
0.0
  0
CIRCLE
  5
7B5
330
70
100
AcDbEntity
  8
팀플 평면 최종 v6_Sketch4
100
AcDbCircle
 10
185.924729470918
 20
384.0135099692055
 30
0.0
 40
15.0
  0
POINT
  5
7B7
330
70
100
AcDbEntity
  8
팀플 평면 최종 v6_Sketch5
100
AcDbPoint
 10
0.0
 20
0.0
 30
0.0
  0
CIRCLE
  5
7B8
330
70
100
AcDbEntity
  8
팀플 평면 최종 v6_Sketch5
100
AcDbCircle
 10
155.0197613388944
 20
357.8532812391288
 30
0.0
 40
15.0
  0
POINT
  5
7BA
330
70
100
AcDbEntity
  8
팀플 평면 최종 v6_Sketch6
100
AcDbPoint
 10
0.0
 20
0.0
 30
0.0
  0
CIRCLE
  5
7BB
330
70
100
AcDbEntity
  8
팀플 평면 최종 v6_Sketch6
100
AcDbCircle
 10
225.1678005479524
 20
389.6703155475568
 30
0.0
 40
15.0
  0
POINT
  5
7BD
330
70
100
AcDbEntity
  8
팀플 평면 최종 v6_Sketch7
100
AcDbPoint
 10
0.0
 20
0.0
 30
0.0
  0
POINT
  5
7BF
330
70
100
AcDbEntity
  8
팀플 평면 최종 v6_Sketch8
100
AcDbPoint
 10
0.0
 20
0.0
 30
0.0
  0
CIRCLE
  5
7C0
330
70
100
AcDbEntity
  8
팀플 평면 최종 v6_Sketch8
100
AcDbCircle
 10
135.1732939944654
 20
304.9340104731548
 30
0.0
 40
13.9
  0
POINT
  5
7C2
330
70
100
AcDbEntity
  8
팀플 평면 최종 v6_Sketch9
100
AcDbPoint
 10
0.0
 20
0.0
 30
0.0
  0
CIRCLE
  5
7C3
330
70
100
AcDbEntity
  8
팀플 평면 최종 v6_Sketch9
100
AcDbCircle
 10
75.45391309562845
 20
365.519253377039
 30
0.0
 40
20.00000000000002
  0
CIRCLE
  5
7C4
330
70
100
AcDbEntity
  8
팀플 평면 최종 v6_Sketch9
100
AcDbCircle
 10
75.45391309562845
 20
365.519253377039
 30
0.0
 40
10.0
  0
POINT
  5
7C6
330
70
100
AcDbEntity
  8
팀플 평면 최종 v6_Sketch10
100
AcDbPoint
 10
0.0
 20
0.0
 30
0.0
  0
LINE
  5
7C7
330
70
100
AcDbEntity
  8
팀플 평면 최종 v6_Sketch10
100
AcDbLine
 10
75.49999831244349
 20
345.4999922774732
 30
0.0
 11
75.49999831244349
 21
385.4999922774732
 31
0.0
  0
ENDSEC
  0
SECTION
  2
OBJECTS
  0
DICTIONARY
  5
C
330
0
100
AcDbDictionary
281
     1
  3
ACAD_COLOR
350
63
  3
ACAD_DETAILVIEWSTYLE
350
6A
  3
ACAD_GROUP
350
D
  3
ACAD_LAYOUT
350
62
  3
ACAD_MATERIAL
350
10
  3
ACAD_MLEADERSTYLE
350
66
  3
ACAD_MLINESTYLE
350
5F
  3
ACAD_PLOTSETTINGS
350
61
  3
ACAD_PLOTSTYLENAME
350
E
  3
ACAD_SCALELIST
350
42
  3
ACAD_SECTIONVIEWSTYLE
350
68
  3
ACAD_TABLESTYLE
350
64
  3
ACAD_VISUALSTYLE
350
29
  3
ACDB_RECOMPOSE_DATA
350
7D0
  3
AcDbVariableDictionary
350
7C8
  0
DICTIONARY
  5
63
102
{ACAD_REACTORS
330
C
102
}
330
C
100
AcDbDictionary
281
     1
  0
DICTIONARY
  5
6A
102
{ACAD_REACTORS
330
C
102
}
330
C
100
AcDbDictionary
281
     1
  3
Imperial24
350
6B
  0
DICTIONARY
  5
D
102
{ACAD_REACTORS
330
C
102
}
330
C
100
AcDbDictionary
281
     1
  0
DICTIONARY
  5
62
102
{ACAD_REACTORS
330
C
102
}
330
C
100
AcDbDictionary
281
     1
  3
Layout1
350
6F
  3
Layout2
350
77
  3
Model
350
73
  0
DICTIONARY
  5
10
102
{ACAD_REACTORS
330
C
102
}
330
C
100
AcDbDictionary
281
     1
  3
ByBlock
350
19
  3
ByLayer
350
11
  3
Global
350
21
  0
DICTIONARY
  5
66
102
{ACAD_REACTORS
330
C
102
}
330
C
100
AcDbDictionary
281
     1
  3
Standard
350
67
  0
DICTIONARY
  5
5F
102
{ACAD_REACTORS
330
C
102
}
330
C
100
AcDbDictionary
281
     1
  3
Standard
350
60
  0
DICTIONARY
  5
61
102
{ACAD_REACTORS
330
C
102
}
330
C
100
AcDbDictionary
281
     1
  0
ACDBDICTIONARYWDFLT
  5
E
102
{ACAD_REACTORS
330
C
102
}
330
C
100
AcDbDictionary
281
     1
  3
Normal
350
F
100
AcDbDictionaryWithDefault
340
F
  0
DICTIONARY
  5
42
102
{ACAD_REACTORS
330
C
102
}
330
C
100
AcDbDictionary
281
     1
  3
A0
350
43
  3
A1
350
44
  3
A2
350
45
  3
A3
350
46
  3
A4
350
47
  3
A5
350
48
  3
A6
350
49
  3
A7
350
4A
  3
A8
350
4B
  3
A9
350
4C
  3
B0
350
4D
  3
B1
350
4E
  3
B2
350
4F
  3
B3
350
50
  3
B4
350
51
  3
B5
350
52
  3
B6
350
53
  0
DICTIONARY
  5
68
102
{ACAD_REACTORS
330
C
102
}
330
C
100
AcDbDictionary
281
     1
  3
Imperial24
350
69
  0
DICTIONARY
  5
64
102
{ACAD_REACTORS
330
C
102
}
330
C
100
AcDbDictionary
281
     1
  3
Standard
350
65
  0
DICTIONARY
  5
29
102
{ACAD_REACTORS
330
C
102
}
330
C
100
AcDbDictionary
281
     1
  3
2dWireframe
350
2F
  3
Basic
350
2E
  3
Brighten
350
35
  3
ColorChange
350
39
  3
Conceptual
350
32
  3
Dim
350
34
  3
EdgeColorOff
350
41
  3
Facepattern
350
38
  3
Flat
350
2A
  3
FlatWithEdges
350
2B
  3
Gouraud
350
2C
  3
GouraudWithEdges
350
2D
  3
Hidden
350
31
  3
JitterOff
350
3F
  3
Linepattern
350
37
  3
OverhangOff
350
40
  3
Realistic
350
33
  3
Shaded
350
3E
  3
Shaded with edges
350
3D
  3
Shades of Gray
350
3A
  3
Sketchy
350
3B
  3
Thicken
350
36
  3
Wireframe
350
30
  3
X-Ray
350
3C
  0
XRECORD
  5
7D0
102
{ACAD_REACTORS
330
C
102
}
330
C
100
AcDbXrecord
280
     1
 90
        1
330
65
  0
DICTIONARY
  5
7C8
102
{ACAD_REACTORS
330
C
102
}
330
C
100
AcDbDictionary
281
     1
  3
CANNOSCALE
350
7CD
  3
CMLEADERSTYLE
350
7CA
  3
CTABLESTYLE
350
7C9
  3
CVIEWDETAILSTYLE
350
7CB
  3
CVIEWSECTIONSTYLE
350
7CC
  0
ACDBDETAILVIEWSTYLE
  5
6B
102
{ACAD_XDICTIONARY
360
7D3
102
}
102
{ACAD_REACTORS
330
6A
102
}
330
6A
100
AcDbModelDocViewStyle
 70
     0
  3
Imperial24
290
     0
100
AcDbDetailViewStyle
 70
     0
 71
     0
 90
        3
 71
     1
340
55
 62
   256
 40
0.24
340
0
 62
   256
 40
0.24
300

 40
0.36
280
     3
 71
     2
340
5D
 90
       25
 62
   256
 71
     3
340
55
 62
   256
 40
0.24
 90
        1
 40
0.75
 90
        1
300
%<\AcVar ViewType \f "%tc1">% %<\AcVar ViewDetailId>%\PSCALE %<\AcVar ViewScale \f "%sn">%
 71
     4
340
5D
 90
       25
 62
   256
340
5D
 90
       25
 62
   256
280
     0
  0
LAYOUT
  5
6F
102
{ACAD_REACTORS
330
62
102
}
330
62
100
AcDbPlotSettings
  1

  2

  4

  6

 40
0.0
 41
0.0
 42
0.0
 43
0.0
 44
0.0
 45
0.0
 46
0.0
 47
0.0
 48
0.0
 49
0.0
140
0.0
141
0.0
142
1.0
143
1.0
 70
   688
 72
     0
 73
     0
 74
     5
  7

 75
    16
147
1.0
 76
     0
 77
     2
 78
   300
148
0.0
149
0.0
100
AcDbLayout
  1
Layout1
 70
     1
 71
     1
 10
0.0
 20
0.0
 11
12.0
 21
9.0
 12
0.0
 22
0.0
 32
0.0
 14
0.0
 24
0.0
 34
0.0
 15
0.0
 25
0.0
 35
0.0
146
0.0
 13
0.0
 23
0.0
 33
0.0
 16
1.0
 26
0.0
 36
0.0
 17
0.0
 27
1.0
 37
0.0
 76
     0
330
6C
  0
LAYOUT
  5
77
102
{ACAD_REACTORS
330
62
102
}
330
62
100
AcDbPlotSettings
  1

  2

  4

  6

 40
0.0
 41
0.0
 42
0.0
 43
0.0
 44
0.0
 45
0.0
 46
0.0
 47
0.0
 48
0.0
 49
0.0
140
0.0
141
0.0
142
1.0
143
1.0
 70
   688
 72
     0
 73
     0
 74
     5
  7

 75
    16
147
1.0
 76
     0
 77
     2
 78
   300
148
0.0
149
0.0
100
AcDbLayout
  1
Layout2
 70
     1
 71
     2
 10
0.0
 20
0.0
 11
12.0
 21
9.0
 12
0.0
 22
0.0
 32
0.0
 14
0.0
 24
0.0
 34
0.0
 15
0.0
 25
0.0
 35
0.0
146
0.0
 13
0.0
 23
0.0
 33
0.0
 16
1.0
 26
0.0
 36
0.0
 17
0.0
 27
1.0
 37
0.0
 76
     0
330
74
  0
LAYOUT
  5
73
102
{ACAD_REACTORS
330
62
102
}
330
62
100
AcDbPlotSettings
  1

  2

  4

  6

 40
0.0
 41
0.0
 42
0.0
 43
0.0
 44
0.0
 45
0.0
 46
0.0
 47
0.0
 48
0.0
 49
0.0
140
0.0
141
0.0
142
1.0
143
1.0
 70
  1712
 72
     0
 73
     0
 74
     0
  7

 75
     0
147
1.0
 76
     0
 77
     2
 78
   300
148
0.0
149
0.0
100
AcDbLayout
  1
Model
 70
     1
 71
     0
 10
0.0
 20
0.0
 11
12.0
 21
9.0
 12
0.0
 22
0.0
 32
0.0
 14
0.0
 24
0.0
 34
0.0
 15
0.0
 25
0.0
 35
0.0
146
0.0
 13
0.0
 23
0.0
 33
0.0
 16
1.0
 26
0.0
 36
0.0
 17
0.0
 27
1.0
 37
0.0
 76
     0
330
70
  0
MATERIAL
  5
19
102
{ACAD_XDICTIONARY
360
1A
102
}
102
{ACAD_REACTORS
330
10
102
}
330
10
100
AcDbMaterial
  1
ByBlock
 72
     0
 43
0.0208333333333333
 43
0.0
 43
0.0
 43
0.0
 43
0.0
 43
0.0208333333333333
 43
0.0
 43
0.0
 43
0.0
 43
0.0
 43
1.0
 43
0.0
 43
0.0
 43
0.0
 43
0.0
 43
1.0
 77
     0
 47
0.0208333333333333
 47
0.0
 47
0.0
 47
0.0
 47
0.0
 47
0.0208333333333333
 47
0.0
 47
0.0
 47
0.0
 47
0.0
 47
1.0
 47
0.0
 47
0.0
 47
0.0
 47
0.0
 47
1.0
171
     0
 49
0.0208333333333333
 49
0.0
 49
0.0
 49
0.0
 49
0.0
 49
0.0208333333333333
 49
0.0
 49
0.0
 49
0.0
 49
0.0
 49
1.0
 49
0.0
 49
0.0
 49
0.0
 49
0.0
 49
1.0
175
     0
142
0.0208333333333333
142
0.0
142
0.0
142
0.0
142
0.0
142
0.0208333333333333
142
0.0
142
0.0
142
0.0
142
0.0
142
1.0
142
0.0
142
0.0
142
0.0
142
0.0
142
1.0
179
     0
144
0.0208333333333333
144
0.0
144
0.0
144
0.0
144
0.0
144
0.0208333333333333
144
0.0
144
0.0
144
0.0
144
0.0
144
1.0
144
0.0
144
0.0
144
0.0
144
0.0
144
1.0
147
0.0208333333333333
147
0.0
147
0.0
147
0.0
147
0.0
147
0.0208333333333333
147
0.0
147
0.0
147
0.0
147
0.0
147
1.0
147
0.0
147
0.0
147
0.0
147
0.0
147
1.0
  0
MATERIAL
  5
11
102
{ACAD_XDICTIONARY
360
12
102
}
102
{ACAD_REACTORS
330
10
102
}
330
10
100
AcDbMaterial
  1
ByLayer
 72
     0
 43
0.0208333333333333
 43
0.0
 43
0.0
 43
0.0
 43
0.0
 43
0.0208333333333333
 43
0.0
 43
0.0
 43
0.0
 43
0.0
 43
1.0
 43
0.0
 43
0.0
 43
0.0
 43
0.0
 43
1.0
 77
     0
 47
0.0208333333333333
 47
0.0
 47
0.0
 47
0.0
 47
0.0
 47
0.0208333333333333
 47
0.0
 47
0.0
 47
0.0
 47
0.0
 47
1.0
 47
0.0
 47
0.0
 47
0.0
 47
0.0
 47
1.0
171
     0
 49
0.0208333333333333
 49
0.0
 49
0.0
 49
0.0
 49
0.0
 49
0.0208333333333333
 49
0.0
 49
0.0
 49
0.0
 49
0.0
 49
1.0
 49
0.0
 49
0.0
 49
0.0
 49
0.0
 49
1.0
175
     0
142
0.0208333333333333
142
0.0
142
0.0
142
0.0
142
0.0
142
0.0208333333333333
142
0.0
142
0.0
142
0.0
142
0.0
142
1.0
142
0.0
142
0.0
142
0.0
142
0.0
142
1.0
179
     0
144
0.0208333333333333
144
0.0
144
0.0
144
0.0
144
0.0
144
0.0208333333333333
144
0.0
144
0.0
144
0.0
144
0.0
144
1.0
144
0.0
144
0.0
144
0.0
144
0.0
144
1.0
147
0.0208333333333333
147
0.0
147
0.0
147
0.0
147
0.0
147
0.0208333333333333
147
0.0
147
0.0
147
0.0
147
0.0
147
1.0
147
0.0
147
0.0
147
0.0
147
0.0
147
1.0
  0
MATERIAL
  5
21
102
{ACAD_XDICTIONARY
360
22
102
}
102
{ACAD_REACTORS
330
10
102
}
330
10
100
AcDbMaterial
  1
Global
 72
     0
 43
0.0208333333333333
 43
0.0
 43
0.0
 43
0.0
 43
0.0
 43
0.0208333333333333
 43
0.0
 43
0.0
 43
0.0
 43
0.0
 43
1.0
 43
0.0
 43
0.0
 43
0.0
 43
0.0
 43
1.0
 77
     0
 47
0.0208333333333333
 47
0.0
 47
0.0
 47
0.0
 47
0.0
 47
0.0208333333333333
 47
0.0
 47
0.0
 47
0.0
 47
0.0
 47
1.0
 47
0.0
 47
0.0
 47
0.0
 47
0.0
 47
1.0
171
     0
 49
0.0208333333333333
 49
0.0
 49
0.0
 49
0.0
 49
0.0
 49
0.0208333333333333
 49
0.0
 49
0.0
 49
0.0
 49
0.0
 49
1.0
 49
0.0
 49
0.0
 49
0.0
 49
0.0
 49
1.0
175
     0
142
0.0208333333333333
142
0.0
142
0.0
142
0.0
142
0.0
142
0.0208333333333333
142
0.0
142
0.0
142
0.0
142
0.0
142
1.0
142
0.0
142
0.0
142
0.0
142
0.0
142
1.0
179
     0
144
0.0208333333333333
144
0.0
144
0.0
144
0.0
144
0.0
144
0.0208333333333333
144
0.0
144
0.0
144
0.0
144
0.0
144
1.0
144
0.0
144
0.0
144
0.0
144
0.0
144
1.0
147
0.0208333333333333
147
0.0
147
0.0
147
0.0
147
0.0
147
0.0208333333333333
147
0.0
147
0.0
147
0.0
147
0.0
147
1.0
147
0.0
147
0.0
147
0.0
147
0.0
147
1.0
  0
MLEADERSTYLE
  5
67
102
{ACAD_REACTORS
330
66
102
}
330
66
100
AcDbMLeaderStyle
179
     2
170
     2
171
     1
172
     0
 90
        2
 40
0.0
 41
0.0
173
     1
 91
-1056964608
340
5B
 92
       -2
290
     1
 42
0.09
291
     1
 43
0.36
  3
Standard
 44
0.18
300

342
55
174
     1
178
     6
175
     1
176
     0
 93
-1056964608
 45
0.18
292
     0
297
     0
 46
0.18
 94
-1056964608
 47
1.0
 49
1.0
140
1.0
293
     1
141
0.0
294
     1
177
     0
142
1.0
295
     0
296
     0
143
0.125
271
     0
272
     9
273
     9
298
     1
  0
MLINESTYLE
  5
60
102
{ACAD_REACTORS
330
5F
102
}
330
5F
100
AcDbMlineStyle
  2
STANDARD
 70
     0
  3

 62
   256
 51
90.0
 52
90.0
 71
     2
 49
0.5
 62
   256
  6
BYLAYER
 49
-0.5
 62
   256
  6
BYLAYER
  0
ACDBPLACEHOLDER
  5
F
102
{ACAD_REACTORS
330
E
102
}
330
E
  0
SCALE
  5
43
102
{ACAD_REACTORS
330
42
102
}
330
42
100
AcDbScale
 70
     0
300
1:1
140
1.0
141
1.0
290
     1
  0
SCALE
  5
44
102
{ACAD_REACTORS
330
42
102
}
330
42
100
AcDbScale
 70
     0
300
1/128" = 1'-0"
140
0.0078125
141
12.0
290
     0
  0
SCALE
  5
45
102
{ACAD_REACTORS
330
42
102
}
330
42
100
AcDbScale
 70
     0
300
1/64" = 1'-0"
140
0.015625
141
12.0
290
     0
  0
SCALE
  5
46
102
{ACAD_REACTORS
330
42
102
}
330
42
100
AcDbScale
 70
     0
300
1/32" = 1'-0"
140
0.03125
141
12.0
290
     0
  0
SCALE
  5
47
102
{ACAD_REACTORS
330
42
102
}
330
42
100
AcDbScale
 70
     0
300
1/16" = 1'-0"
140
0.0625
141
12.0
290
     0
  0
SCALE
  5
48
102
{ACAD_REACTORS
330
42
102
}
330
42
100
AcDbScale
 70
     0
300
3/32" = 1'-0"
140
0.09375
141
12.0
290
     0
  0
SCALE
  5
49
102
{ACAD_REACTORS
330
42
102
}
330
42
100
AcDbScale
 70
     0
300
1/8" = 1'-0"
140
0.125
141
12.0
290
     0
  0
SCALE
  5
4A
102
{ACAD_REACTORS
330
42
102
}
330
42
100
AcDbScale
 70
     0
300
3/16" = 1'-0"
140
0.1875
141
12.0
290
     0
  0
SCALE
  5
4B
102
{ACAD_REACTORS
330
42
102
}
330
42
100
AcDbScale
 70
     0
300
1/4" = 1'-0"
140
0.25
141
12.0
290
     0
  0
SCALE
  5
4C
102
{ACAD_REACTORS
330
42
102
}
330
42
100
AcDbScale
 70
     0
300
3/8" = 1'-0"
140
0.375
141
12.0
290
     0
  0
SCALE
  5
4D
102
{ACAD_REACTORS
330
42
102
}
330
42
100
AcDbScale
 70
     0
300
1/2" = 1'-0"
140
0.5
141
12.0
290
     0
  0
SCALE
  5
4E
102
{ACAD_REACTORS
330
42
102
}
330
42
100
AcDbScale
 70
     0
300
3/4" = 1'-0"
140
0.75
141
12.0
290
     0
  0
SCALE
  5
4F
102
{ACAD_REACTORS
330
42
102
}
330
42
100
AcDbScale
 70
     0
300
1" = 1'-0"
140
1.0
141
12.0
290
     0
  0
SCALE
  5
50
102
{ACAD_REACTORS
330
42
102
}
330
42
100
AcDbScale
 70
     0
300
1-1/2" = 1'-0"
140
1.5
141
12.0
290
     0
  0
SCALE
  5
51
102
{ACAD_REACTORS
330
42
102
}
330
42
100
AcDbScale
 70
     0
300
3" = 1'-0"
140
3.0
141
12.0
290
     0
  0
SCALE
  5
52
102
{ACAD_REACTORS
330
42
102
}
330
42
100
AcDbScale
 70
     0
300
6" = 1'-0"
140
6.0
141
12.0
290
     0
  0
SCALE
  5
53
102
{ACAD_REACTORS
330
42
102
}
330
42
100
AcDbScale
 70
     0
300
1'-0" = 1'-0"
140
12.0
141
12.0
290
     0
  0
ACDBSECTIONVIEWSTYLE
  5
69
102
{ACAD_XDICTIONARY
360
7D1
102
}
102
{ACAD_REACTORS
330
68
102
}
330
68
100
AcDbModelDocViewStyle
 70
     0
  3
Imperial24
290
     0
100
AcDbSectionViewStyle
 70
     0
 71
     0
 90
       78
 71
     1
340
55
 62
   256
 40
0.24
340
0
340
0
 62
   256
 40
0.24
300
I, O, Q, S, X, Z
 40
0.48
 90
        3
 40
0.18
 90
        1
 71
     2
340
5D
 90
       25
 62
   256
340
5D
 90
       50
 62
   256
 40
0.24
 40
0.0
 40
0.24
 71
     3
340
55
 62
   256
 40
0.24
 90
        1
 40
0.75
 90
        1
300
%<\AcVar ViewType \f "%tc1">% %<\AcVar ViewSectionStartId>%-%<\AcVar ViewSectionEndId>%\PSCALE %<\AcVar ViewScale \f "%sn">%
 71
     4
 62
   256
 62
   257
300
ANSI31
 40
1.0
 90
        0
290
     0
290
     0
 90
        6
 40
0.0
 40
1.570796326794896
 40
0.2617993877991494
 40
1.308996938995747
 40
-0.2617993877991494
 40
1.832595714594046
  0
TABLESTYLE
  5
65
102
{ACAD_XDICTIONARY
360
7CE
102
}
102
{ACAD_REACTORS
330
64
102
}
330
64
100
AcDbTableStyle
280
     0
  3
Standard
 70
     0
 71
     0
 40
0.06
 41
0.06
280
     0
281
     0
  7
Standard
140
0.18
170
     2
 62
     0
 63
     7
283
     0
 90
      512
 91
        0
  1

274
    -2
284
     1
 64
     0
275
    -2
285
     1
 65
     0
276
    -2
286
     1
 66
     0
277
    -2
287
     1
 67
     0
278
    -2
288
     1
 68
     0
279
    -2
289
     1
 69
     0
  7
Standard
140
0.25
170
     5
 62
     0
 63
     7
283
     0
 90
      512
 91
        0
  1

274
    -2
284
     1
 64
     0
275
    -2
285
     1
 65
     0
276
    -2
286
     1
 66
     0
277
    -2
287
     1
 67
     0
278
    -2
288
     1
 68
     0
279
    -2
289
     1
 69
     0
  7
Standard
140
0.18
170
     5
 62
     0
 63
     7
283
     0
 90
      512
 91
        0
  1

274
    -2
284
     1
 64
     0
275
    -2
285
     1
 65
     0
276
    -2
286
     1
 66
     0
277
    -2
287
     1
 67
     0
278
    -2
288
     1
 68
     0
279
    -2
289
     1
 69
     0
  0
VISUALSTYLE
  5
2F
102
{ACAD_REACTORS
330
29
102
}
330
29
100
AcDbVisualStyle
  2
2dWireframe
 70
     4
177
     3
291
     0
 70
    58
 90
        0
176
     1
 90
        2
176
     1
 90
        0
176
     1
 90
        0
176
     1
 40
0.6
176
     1
 40
30.0
176
     1
 62
     7
420
 16777215
176
     1
 90
        1
176
     1
 90
        4
176
     1
 62
     7
176
     1
 62
   257
176
     1
 90
        1
176
     1
 90
        1
176
     1
 40
1.0
176
     1
 90
        0
176
     1
 62
   257
176
     1
 40
1.0
176
     1
 90
        1
176
     1
 90
        6
176
     1
 90
        2
176
     1
 62
     7
176
     1
 90
        5
176
     1
 90
        0
176
     1
 90
        0
176
     1
290
     0
176
     1
 90
        1
176
     1
 40
0.0
176
     1
 90
        0
176
     1
290
     1
176
     1
290
     1
176
     1
290
     0
176
     1
290
     0
176
     1
290
     0
176
     1
290
     0
176
     1
290
     0
176
     1
290
     0
176
     1
290
     0
176
     1
 90
       50
176
     1
 40
0.0
176
     1
 40
1.0
176
     1
 90
        0
176
     1
 62
    18
420
        0
176
     1
 90
       50
176
     1
 90
        3
176
     1
 62
     5
420
      255
176
     1
290
     0
176
     1
 90
       50
176
     1
 90
       50
176
     1
 90
       50
176
     1
290
     0
176
     1
 90
       50
176
     1
 62
   256
176
     0
 40
1.0
176
     0
 90
        2
176
     1
  1
strokes_ogs.tif
176
     1
290
     0
176
     1
 40
1.0
176
     1
 40
1.0
176
     1
1001
ACAD
1000
AcDbSavedByObjectVersion
1070
     0
  0
VISUALSTYLE
  5
2E
102
{ACAD_REACTORS
330
29
102
}
330
29
100
AcDbVisualStyle
  2
Basic
 70
     7
177
     3
291
     1
 70
    58
 90
        1
176
     1
 90
        0
176
     1
 90
        1
176
     1
 90
        0
176
     1
 40
0.6
176
     1
 40
30.0
176
     1
 62
     7
420
 16777215
176
     1
 90
        0
176
     1
 90
        4
176
     1
 62
     7
176
     1
 62
   257
176
     1
 90
        1
176
     1
 90
        1
176
     1
 40
1.0
176
     1
 90
        8
176
     1
 62
     7
176
     1
 40
1.0
176
     1
 90
        1
176
     1
 90
        6
176
     1
 90
        2
176
     1
 62
     7
176
     1
 90
        5
176
     1
 90
        0
176
     1
 90
        0
176
     1
290
     0
176
     1
 90
        1
176
     1
 40
0.0
176
     1
 90
        0
176
     1
290
     0
176
     1
290
     1
176
     1
290
     1
176
     1
290
     0
176
     1
290
     0
176
     1
290
     0
176
     1
290
     0
176
     1
290
     0
176
     1
290
     0
176
     1
 90
       50
176
     1
 40
0.0
176
     1
 40
1.0
176
     1
 90
        0
176
     1
 62
    18
420
        0
176
     1
 90
       50
176
     1
 90
        3
176
     1
 62
     5
420
      255
176
     1
290
     0
176
     1
 90
       50
176
     1
 90
       50
176
     1
 90
       50
176
     1
290
     0
176
     1
 90
       50
176
     1
 62
   256
176
     0
 40
1.0
176
     0
 90
        2
176
     1
  1
strokes_ogs.tif
176
     1
290
     0
176
     1
 40
1.0
176
     1
 40
1.0
176
     1
1001
ACAD
1000
AcDbSavedByObjectVersion
1070
     0
  0
VISUALSTYLE
  5
35
102
{ACAD_REACTORS
330
29
102
}
330
29
100
AcDbVisualStyle
  2
Brighten
 70
    12
177
     3
291
     1
 70
    58
 90
        2
176
     1
 90
        2
176
     1
 90
        0
176
     1
 90
        0
176
     1
 40
0.6
176
     1
 40
30.0
176
     1
 62
     7
420
 16777215
176
     1
 90
        1
176
     1
 90
        4
176
     1
 62
     7
176
     1
 62
   257
176
     1
 90
        1
176
     1
 90
        1
176
     1
 40
1.0
176
     1
 90
        8
176
     1
 62
     7
176
     1
 40
1.0
176
     1
 90
        1
176
     1
 90
        6
176
     1
 90
        2
176
     1
 62
     7
176
     1
 90
        5
176
     1
 90
        0
176
     1
 90
        0
176
     1
290
     0
176
     1
 90
        1
176
     1
 40
50.0
176
     1
 90
        0
176
     1
290
     0
176
     1
290
     1
176
     1
290
     1
176
     1
290
     0
176
     1
290
     0
176
     1
290
     0
176
     1
290
     0
176
     1
290
     0
176
     1
290
     0
176
     1
 90
       50
176
     1
 40
0.0
176
     1
 40
1.0
176
     1
 90
        0
176
     1
 62
    18
420
        0
176
     1
 90
       50
176
     1
 90
        3
176
     1
 62
     5
420
      255
176
     1
290
     0
176
     1
 90
       50
176
     1
 90
       50
176
     1
 90
       50
176
     1
290
     0
176
     1
 90
       50
176
     1
 62
   256
176
     0
 40
1.0
176
     0
 90
        2
176
     1
  1
strokes_ogs.tif
176
     1
290
     0
176
     1
 40
1.0
176
     1
 40
1.0
176
     1
1001
ACAD
1000
AcDbSavedByObjectVersion
1070
     0
  0
VISUALSTYLE
  5
39
102
{ACAD_REACTORS
330
29
102
}
330
29
100
AcDbVisualStyle
  2
ColorChange
 70
    16
177
     3
291
     1
 70
    58
 90
        2
176
     1
 90
        2
176
     1
 90
        3
176
     1
 90
        0
176
     1
 40
0.6
176
     1
 40
30.0
176
     1
 62
     8
420
  8421504
176
     1
 90
        1
176
     1
 90
        4
176
     1
 62
     7
176
     1
 62
   257
176
     1
 90
        1
176
     1
 90
        1
176
     1
 40
1.0
176
     1
 90
        8
176
     1
 62
     8
420
  8421504
176
     1
 40
1.0
176
     1
 90
        1
176
     1
 90
        6
176
     1
 90
        2
176
     1
 62
     7
176
     1
 90
        5
176
     1
 90
        0
176
     1
 90
        0
176
     1
290
     0
176
     1
 90
        1
176
     1
 40
0.0
176
     1
 90
        0
176
     1
290
     0
176
     1
290
     1
176
     1
290
     1
176
     1
290
     0
176
     1
290
     0
176
     1
290
     0
176
     1
290
     0
176
     1
290
     0
176
     1
290
     0
176
     1
 90
       50
176
     1
 40
0.0
176
     1
 40
1.0
176
     1
 90
        0
176
     1
 62
    18
420
        0
176
     1
 90
       50
176
     1
 90
        3
176
     1
 62
     5
420
      255
176
     1
290
     0
176
     1
 90
       50
176
     1
 90
       50
176
     1
 90
       50
176
     1
290
     0
176
     1
 90
       50
176
     1
 62
   256
176
     0
 40
1.0
176
     0
 90
        2
176
     1
  1
strokes_ogs.tif
176
     1
290
     0
176
     1
 40
1.0
176
     1
 40
1.0
176
     1
1001
ACAD
1000
AcDbSavedByObjectVersion
1070
     0
  0
VISUALSTYLE
  5
32
102
{ACAD_REACTORS
330
29
102
}
330
29
100
AcDbVisualStyle
  2
Conceptual
 70
     9
177
     3
291
     0
 70
    58
 90
        3
176
     1
 90
        2
176
     1
 90
        0
176
     1
 90
        0
176
     1
 40
0.6
176
     1
 40
30.0
176
     1
 62
     7
420
 16777215
176
     1
 90
        2
176
     1
 90
        2
176
     1
 62
     7
176
     1
 62
   257
176
     1
 90
        1
176
     1
 90
        1
176
     1
 40
179.0
176
     1
 90
        8
176
     1
 62
     7
176
     1
 40
1.0
176
     1
 90
        1
176
     1
 90
        6
176
     1
 90
        2
176
     1
 62
     7
176
     1
 90
        3
176
     1
 90
        0
176
     1
 90
        0
176
     1
290
     0
176
     1
 90
        1
176
     1
 40
0.0
176
     1
 90
        0
176
     1
290
     0
176
     1
290
     1
176
     1
290
     1
176
     1
290
     0
176
     1
290
     0
176
     1
290
     0
176
     1
290
     0
176
     1
290
     0
176
     1
290
     0
176
     1
 90
       50
176
     1
 40
0.0
176
     1
 40
1.0
176
     1
 90
        0
176
     1
 62
    18
420
        0
176
     1
 90
       50
176
     1
 90
        3
176
     1
 62
     5
420
      255
176
     1
290
     0
176
     1
 90
       50
176
     1
 90
       50
176
     1
 90
       50
176
     1
290
     0
176
     1
 90
       50
176
     1
 62
   256
176
     0
 40
1.0
176
     0
 90
        2
176
     1
  1
strokes_ogs.tif
176
     1
290
     0
176
     1
 40
1.0
176
     1
 40
1.0
176
     1
1001
ACAD
1000
AcDbSavedByObjectVersion
1070
     0
  0
VISUALSTYLE
  5
34
102
{ACAD_REACTORS
330
29
102
}
330
29
100
AcDbVisualStyle
  2
Dim
 70
    11
177
     3
291
     1
 70
    58
 90
        2
176
     1
 90
        2
176
     1
 90
        0
176
     1
 90
        0
176
     1
 40
0.6
176
     1
 40
30.0
176
     1
 62
     7
420
 16777215
176
     1
 90
        1
176
     1
 90
        4
176
     1
 62
     7
176
     1
 62
   257
176
     1
 90
        1
176
     1
 90
        1
176
     1
 40
1.0
176
     1
 90
        8
176
     1
 62
     7
176
     1
 40
1.0
176
     1
 90
        1
176
     1
 90
        6
176
     1
 90
        2
176
     1
 62
     7
176
     1
 90
        5
176
     1
 90
        0
176
     1
 90
        0
176
     1
290
     0
176
     1
 90
        1
176
     1
 40
-50.0
176
     1
 90
        0
176
     1
290
     0
176
     1
290
     1
176
     1
290
     1
176
     1
290
     0
176
     1
290
     0
176
     1
290
     0
176
     1
290
     0
176
     1
290
     0
176
     1
290
     0
176
     1
 90
       50
176
     1
 40
0.0
176
     1
 40
1.0
176
     1
 90
        0
176
     1
 62
    18
420
        0
176
     1
 90
       50
176
     1
 90
        3
176
     1
 62
     5
420
      255
176
     1
290
     0
176
     1
 90
       50
176
     1
 90
       50
176
     1
 90
       50
176
     1
290
     0
176
     1
 90
       50
176
     1
 62
   256
176
     0
 40
1.0
176
     0
 90
        2
176
     1
  1
strokes_ogs.tif
176
     1
290
     0
176
     1
 40
1.0
176
     1
 40
1.0
176
     1
1001
ACAD
1000
AcDbSavedByObjectVersion
1070
     0
  0
VISUALSTYLE
  5
41
102
{ACAD_REACTORS
330
29
102
}
330
29
100
AcDbVisualStyle
  2
EdgeColorOff
 70
    22
177
     3
291
     1
 70
    58
 90
        2
176
     0
 90
        2
176
     0
 90
        0
176
     0
 90
        0
176
     0
 40
0.6
176
     0
 40
30.0
176
     0
 62
     7
420
 16777215
176
     0
 90
        1
176
     0
 90
        4
176
     0
 62
     7
176
     0
 62
   257
176
     0
 90
        1
176
     0
 90
        1
176
     0
 40
1.0
176
     0
 90
        8
176
     2
 62
     7
176
     0
 40
1.0
176
     0
 90
        1
176
     0
 90
        6
176
     0
 90
        2
176
     0
 62
     7
176
     0
 90
        5
176
     0
 90
        0
176
     0
 90
        0
176
     0
290
     0
176
     0
 90
        1
176
     0
 40
0.0
176
     0
 90
        0
176
     0
290
     0
176
     0
290
     1
176
     0
290
     1
176
     0
290
     0
176
     0
290
     0
176
     0
290
     0
176
     0
290
     0
176
     0
290
     0
176
     0
290
     0
176
     0
 90
       50
176
     0
 40
0.0
176
     0
 40
1.0
176
     0
 90
        0
176
     0
 62
    18
420
        0
176
     0
 90
       50
176
     0
 90
        3
176
     0
 62
     5
420
      255
176
     0
290
     0
176
     0
 90
       50
176
     0
 90
       50
176
     0
 90
       50
176
     0
290
     0
176
     0
 90
       50
176
     0
 62
   256
176
     0
 40
1.0
176
     0
 90
        2
176
     0
  1
strokes_ogs.tif
176
     0
290
     0
176
     0
 40
1.0
176
     0
 40
1.0
176
     0
1001
ACAD
1000
AcDbSavedByObjectVersion
1070
     0
  0
VISUALSTYLE
  5
38
102
{ACAD_REACTORS
330
29
102
}
330
29
100
AcDbVisualStyle
  2
Facepattern
 70
    15
177
     3
291
     1
 70
    58
 90
        2
176
     1
 90
        2
176
     1
 90
        0
176
     1
 90
        0
176
     1
 40
0.6
176
     1
 40
30.0
176
     1
 62
     7
420
 16777215
176
     1
 90
        1
176
     1
 90
        4
176
     1
 62
     7
176
     1
 62
   257
176
     1
 90
        1
176
     1
 90
        1
176
     1
 40
1.0
176
     1
 90
        8
176
     1
 62
     7
176
     1
 40
1.0
176
     1
 90
        1
176
     1
 90
        6
176
     1
 90
        2
176
     1
 62
     7
176
     1
 90
        5
176
     1
 90
        0
176
     1
 90
        0
176
     1
290
     0
176
     1
 90
        1
176
     1
 40
0.0
176
     1
 90
        0
176
     1
290
     0
176
     1
290
     1
176
     1
290
     1
176
     1
290
     0
176
     1
290
     0
176
     1
290
     0
176
     1
290
     0
176
     1
290
     0
176
     1
290
     0
176
     1
 90
       50
176
     1
 40
0.0
176
     1
 40
1.0
176
     1
 90
        0
176
     1
 62
    18
420
        0
176
     1
 90
       50
176
     1
 90
        3
176
     1
 62
     5
420
      255
176
     1
290
     0
176
     1
 90
       50
176
     1
 90
       50
176
     1
 90
       50
176
     1
290
     0
176
     1
 90
       50
176
     1
 62
   256
176
     0
 40
1.0
176
     0
 90
        2
176
     1
  1
strokes_ogs.tif
176
     1
290
     0
176
     1
 40
1.0
176
     1
 40
1.0
176
     1
1001
ACAD
1000
AcDbSavedByObjectVersion
1070
     0
  0
VISUALSTYLE
  5
2A
102
{ACAD_REACTORS
330
29
102
}
330
29
100
AcDbVisualStyle
  2
Flat
 70
     0
177
     3
291
     1
 70
    58
 90
        2
176
     1
 90
        1
176
     1
 90
        1
176
     1
 90
        2
176
     1
 40
0.6
176
     1
 40
30.0
176
     1
 62
     7
420
 16777215
176
     1
 90
        0
176
     1
 90
        0
176
     1
 62
     7
176
     1
 62
   257
176
     1
 90
        1
176
     1
 90
        1
176
     1
 40
1.0
176
     1
 90
        8
176
     1
 62
     7
176
     1
 40
1.0
176
     1
 90
        1
176
     1
 90
        6
176
     1
 90
        2
176
     1
 62
     7
176
     1
 90
        5
176
     1
 90
        0
176
     1
 90
        0
176
     1
290
     0
176
     1
 90
       13
176
     1
 40
0.0
176
     1
 90
        0
176
     1
290
     0
176
     1
290
     1
176
     1
290
     1
176
     1
290
     0
176
     1
290
     0
176
     1
290
     0
176
     1
290
     0
176
     1
290
     0
176
     1
290
     0
176
     1
 90
       50
176
     1
 40
0.0
176
     1
 40
1.0
176
     1
 90
        0
176
     1
 62
    18
420
        0
176
     1
 90
       50
176
     1
 90
        3
176
     1
 62
     5
420
      255
176
     1
290
     0
176
     1
 90
       50
176
     1
 90
       50
176
     1
 90
       50
176
     1
290
     0
176
     1
 90
       50
176
     1
 62
   256
176
     0
 40
1.0
176
     0
 90
        2
176
     1
  1
strokes_ogs.tif
176
     1
290
     0
176
     1
 40
1.0
176
     1
 40
1.0
176
     1
1001
ACAD
1000
AcDbSavedByObjectVersion
1070
     0
  0
VISUALSTYLE
  5
2B
102
{ACAD_REACTORS
330
29
102
}
330
29
100
AcDbVisualStyle
  2
FlatWithEdges
 70
     1
177
     3
291
     1
 70
    58
 90
        2
176
     1
 90
        1
176
     1
 90
        1
176
     1
 90
        2
176
     1
 40
0.6
176
     1
 40
30.0
176
     1
 62
     7
420
 16777215
176
     1
 90
        1
176
     1
 90
        0
176
     1
 62
     7
176
     1
 62
   257
176
     1
 90
        1
176
     1
 90
        1
176
     1
 40
1.0
176
     1
 90
        0
176
     1
 62
   257
176
     1
 40
1.0
176
     1
 90
        1
176
     1
 90
        6
176
     1
 90
        2
176
     1
 62
     7
176
     1
 90
        5
176
     1
 90
        0
176
     1
 90
        0
176
     1
290
     0
176
     1
 90
       13
176
     1
 40
0.0
176
     1
 90
        0
176
     1
290
     0
176
     1
290
     1
176
     1
290
     1
176
     1
290
     0
176
     1
290
     0
176
     1
290
     0
176
     1
290
     0
176
     1
290
     0
176
     1
290
     0
176
     1
 90
       50
176
     1
 40
0.0
176
     1
 40
1.0
176
     1
 90
        0
176
     1
 62
    18
420
        0
176
     1
 90
       50
176
     1
 90
        3
176
     1
 62
     5
420
      255
176
     1
290
     0
176
     1
 90
       50
176
     1
 90
       50
176
     1
 90
       50
176
     1
290
     0
176
     1
 90
       50
176
     1
 62
   256
176
     0
 40
1.0
176
     0
 90
        2
176
     1
  1
strokes_ogs.tif
176
     1
290
     0
176
     1
 40
1.0
176
     1
 40
1.0
176
     1
1001
ACAD
1000
AcDbSavedByObjectVersion
1070
     0
  0
VISUALSTYLE
  5
2C
102
{ACAD_REACTORS
330
29
102
}
330
29
100
AcDbVisualStyle
  2
Gouraud
 70
     2
177
     3
291
     1
 70
    58
 90
        2
176
     1
 90
        2
176
     1
 90
        1
176
     1
 90
        2
176
     1
 40
0.6
176
     1
 40
30.0
176
     1
 62
     7
420
 16777215
176
     1
 90
        0
176
     1
 90
        0
176
     1
 62
     7
176
     1
 62
   257
176
     1
 90
        1
176
     1
 90
        1
176
     1
 40
1.0
176
     1
 90
        0
176
     1
 62
     7
176
     1
 40
1.0
176
     1
 90
        1
176
     1
 90
        6
176
     1
 90
        2
176
     1
 62
     7
176
     1
 90
        5
176
     1
 90
        0
176
     1
 90
        0
176
     1
290
     0
176
     1
 90
       13
176
     1
 40
0.0
176
     1
 90
        0
176
     1
290
     0
176
     1
290
     1
176
     1
290
     1
176
     1
290
     0
176
     1
290
     0
176
     1
290
     0
176
     1
290
     0
176
     1
290
     0
176
     1
290
     0
176
     1
 90
       50
176
     1
 40
0.0
176
     1
 40
1.0
176
     1
 90
        0
176
     1
 62
    18
420
        0
176
     1
 90
       50
176
     1
 90
        3
176
     1
 62
     5
420
      255
176
     1
290
     0
176
     1
 90
       50
176
     1
 90
       50
176
     1
 90
       50
176
     1
290
     0
176
     1
 90
       50
176
     1
 62
   256
176
     0
 40
1.0
176
     0
 90
        2
176
     1
  1
strokes_ogs.tif
176
     1
290
     0
176
     1
 40
1.0
176
     1
 40
1.0
176
     1
1001
ACAD
1000
AcDbSavedByObjectVersion
1070
     0
  0
VISUALSTYLE
  5
2D
102
{ACAD_REACTORS
330
29
102
}
330
29
100
AcDbVisualStyle
  2
GouraudWithEdges
 70
     3
177
     3
291
     1
 70
    58
 90
        2
176
     1
 90
        2
176
     1
 90
        1
176
     1
 90
        2
176
     1
 40
0.6
176
     1
 40
30.0
176
     1
 62
     7
420
 16777215
176
     1
 90
        1
176
     1
 90
        0
176
     1
 62
     7
176
     1
 62
   257
176
     1
 90
        1
176
     1
 90
        1
176
     1
 40
1.0
176
     1
 90
        0
176
     1
 62
   257
176
     1
 40
1.0
176
     1
 90
        1
176
     1
 90
        6
176
     1
 90
        2
176
     1
 62
     7
176
     1
 90
        5
176
     1
 90
        0
176
     1
 90
        0
176
     1
290
     0
176
     1
 90
       13
176
     1
 40
0.0
176
     1
 90
        0
176
     1
290
     0
176
     1
290
     1
176
     1
290
     1
176
     1
290
     0
176
     1
290
     0
176
     1
290
     0
176
     1
290
     0
176
     1
290
     0
176
     1
290
     0
176
     1
 90
       50
176
     1
 40
0.0
176
     1
 40
1.0
176
     1
 90
        0
176
     1
 62
    18
420
        0
176
     1
 90
       50
176
     1
 90
        3
176
     1
 62
     5
420
      255
176
     1
290
     0
176
     1
 90
       50
176
     1
 90
       50
176
     1
 90
       50
176
     1
290
     0
176
     1
 90
       50
176
     1
 62
   256
176
     0
 40
1.0
176
     0
 90
        2
176
     1
  1
strokes_ogs.tif
176
     1
290
     0
176
     1
 40
1.0
176
     1
 40
1.0
176
     1
1001
ACAD
1000
AcDbSavedByObjectVersion
1070
     0
  0
VISUALSTYLE
  5
31
102
{ACAD_REACTORS
330
29
102
}
330
29
100
AcDbVisualStyle
  2
Hidden
 70
     6
177
     3
291
     0
 70
    58
 90
        1
176
     1
 90
        2
176
     1
 90
        2
176
     1
 90
        0
176
     1
 40
0.6
176
     1
 40
30.0
176
     1
 62
     7
420
 16777215
176
     1
 90
        2
176
     1
 90
        2
176
     1
 62
     7
176
     1
 62
   257
176
     1
 90
        2
176
     1
 90
        1
176
     1
 40
40.0
176
     1
 90
        0
176
     1
 62
   257
176
     1
 40
1.0
176
     1
 90
        1
176
     1
 90
        6
176
     1
 90
        2
176
     1
 62
     7
176
     1
 90
        3
176
     1
 90
        0
176
     1
 90
        0
176
     1
290
     0
176
     1
 90
        1
176
     1
 40
0.0
176
     1
 90
        0
176
     1
290
     0
176
     1
290
     1
176
     1
290
     1
176
     1
290
     0
176
     1
290
     0
176
     1
290
     0
176
     1
290
     0
176
     1
290
     0
176
     1
290
     0
176
     1
 90
       50
176
     1
 40
0.0
176
     1
 40
1.0
176
     1
 90
        0
176
     1
 62
    18
420
        0
176
     1
 90
       50
176
     1
 90
        3
176
     1
 62
     5
420
      255
176
     1
290
     0
176
     1
 90
       50
176
     1
 90
       50
176
     1
 90
       50
176
     1
290
     0
176
     1
 90
       50
176
     1
 62
   256
176
     0
 40
1.0
176
     0
 90
        2
176
     1
  1
strokes_ogs.tif
176
     1
290
     0
176
     1
 40
1.0
176
     1
 40
1.0
176
     1
1001
ACAD
1000
AcDbSavedByObjectVersion
1070
     0
  0
VISUALSTYLE
  5
3F
102
{ACAD_REACTORS
330
29
102
}
330
29
100
AcDbVisualStyle
  2
JitterOff
 70
    20
177
     3
291
     1
 70
    58
 90
        2
176
     0
 90
        2
176
     0
 90
        0
176
     0
 90
        0
176
     0
 40
0.6
176
     0
 40
30.0
176
     0
 62
     7
420
 16777215
176
     0
 90
        1
176
     0
 90
        4
176
     0
 62
     7
176
     0
 62
   257
176
     0
 90
        1
176
     0
 90
        1
176
     0
 40
1.0
176
     0
 90
       10
176
     2
 62
     7
176
     0
 40
1.0
176
     0
 90
        1
176
     0
 90
        6
176
     0
 90
        2
176
     0
 62
     7
176
     0
 90
        5
176
     0
 90
        0
176
     0
 90
        0
176
     0
290
     0
176
     0
 90
        1
176
     0
 40
0.0
176
     0
 90
        0
176
     0
290
     0
176
     0
290
     1
176
     0
290
     1
176
     0
290
     0
176
     0
290
     0
176
     0
290
     0
176
     0
290
     0
176
     0
290
     0
176
     0
290
     0
176
     0
 90
       50
176
     0
 40
0.0
176
     0
 40
1.0
176
     0
 90
        0
176
     0
 62
    18
420
        0
176
     0
 90
       50
176
     0
 90
        3
176
     0
 62
     5
420
      255
176
     0
290
     0
176
     0
 90
       50
176
     0
 90
       50
176
     0
 90
       50
176
     0
290
     0
176
     0
 90
       50
176
     0
 62
   256
176
     0
 40
1.0
176
     0
 90
        2
176
     0
  1
strokes_ogs.tif
176
     0
290
     0
176
     0
 40
1.0
176
     0
 40
1.0
176
     0
1001
ACAD
1000
AcDbSavedByObjectVersion
1070
     0
  0
VISUALSTYLE
  5
37
102
{ACAD_REACTORS
330
29
102
}
330
29
100
AcDbVisualStyle
  2
Linepattern
 70
    14
177
     3
291
     1
 70
    58
 90
        2
176
     1
 90
        2
176
     1
 90
        0
176
     1
 90
        0
176
     1
 40
0.6
176
     1
 40
30.0
176
     1
 62
     7
420
 16777215
176
     1
 90
        1
176
     1
 90
        4
176
     1
 62
     7
176
     1
 62
   257
176
     1
 90
        7
176
     1
 90
        7
176
     1
 40
1.0
176
     1
 90
        8
176
     1
 62
     7
176
     1
 40
1.0
176
     1
 90
        1
176
     1
 90
        6
176
     1
 90
        2
176
     1
 62
     7
176
     1
 90
        5
176
     1
 90
        0
176
     1
 90
        0
176
     1
290
     0
176
     1
 90
        1
176
     1
 40
0.0
176
     1
 90
        0
176
     1
290
     0
176
     1
290
     1
176
     1
290
     1
176
     1
290
     0
176
     1
290
     0
176
     1
290
     0
176
     1
290
     0
176
     1
290
     0
176
     1
290
     0
176
     1
 90
       50
176
     1
 40
0.0
176
     1
 40
1.0
176
     1
 90
        0
176
     1
 62
    18
420
        0
176
     1
 90
       50
176
     1
 90
        3
176
     1
 62
     5
420
      255
176
     1
290
     0
176
     1
 90
       50
176
     1
 90
       50
176
     1
 90
       50
176
     1
290
     0
176
     1
 90
       50
176
     1
 62
   256
176
     0
 40
1.0
176
     0
 90
        2
176
     1
  1
strokes_ogs.tif
176
     1
290
     0
176
     1
 40
1.0
176
     1
 40
1.0
176
     1
1001
ACAD
1000
AcDbSavedByObjectVersion
1070
     0
  0
VISUALSTYLE
  5
40
102
{ACAD_REACTORS
330
29
102
}
330
29
100
AcDbVisualStyle
  2
OverhangOff
 70
    21
177
     3
291
     1
 70
    58
 90
        2
176
     0
 90
        2
176
     0
 90
        0
176
     0
 90
        0
176
     0
 40
0.6
176
     0
 40
30.0
176
     0
 62
     7
420
 16777215
176
     0
 90
        1
176
     0
 90
        4
176
     0
 62
     7
176
     0
 62
   257
176
     0
 90
        1
176
     0
 90
        1
176
     0
 40
1.0
176
     0
 90
        9
176
     2
 62
     7
176
     0
 40
1.0
176
     0
 90
        1
176
     0
 90
        6
176
     0
 90
        2
176
     0
 62
     7
176
     0
 90
        5
176
     0
 90
        0
176
     0
 90
        0
176
     0
290
     0
176
     0
 90
        1
176
     0
 40
0.0
176
     0
 90
        0
176
     0
290
     0
176
     0
290
     1
176
     0
290
     1
176
     0
290
     0
176
     0
290
     0
176
     0
290
     0
176
     0
290
     0
176
     0
290
     0
176
     0
290
     0
176
     0
 90
       50
176
     0
 40
0.0
176
     0
 40
1.0
176
     0
 90
        0
176
     0
 62
    18
420
        0
176
     0
 90
       50
176
     0
 90
        3
176
     0
 62
     5
420
      255
176
     0
290
     0
176
     0
 90
       50
176
     0
 90
       50
176
     0
 90
       50
176
     0
290
     0
176
     0
 90
       50
176
     0
 62
   256
176
     0
 40
1.0
176
     0
 90
        2
176
     0
  1
strokes_ogs.tif
176
     0
290
     0
176
     0
 40
1.0
176
     0
 40
1.0
176
     0
1001
ACAD
1000
AcDbSavedByObjectVersion
1070
     0
  0
VISUALSTYLE
  5
33
102
{ACAD_REACTORS
330
29
102
}
330
29
100
AcDbVisualStyle
  2
Realistic
 70
     8
177
     3
291
     0
 70
    58
 90
        2
176
     1
 90
        3
176
     1
 90
        0
176
     1
 90
        2
176
     1
 40
0.6
176
     1
 40
30.0
176
     1
 62
     7
420
 16777215
176
     1
 90
        0
176
     1
 90
        0
176
     1
 62
     7
176
     1
 62
   257
176
     1
 90
        1
176
     1
 90
        1
176
     1
 40
1.0
176
     1
 90
        8
176
     1
 62
   257
176
     1
 40
1.0
176
     1
 90
        1
176
     1
 90
        6
176
     1
 90
        2
176
     1
 62
     7
176
     1
 90
        3
176
     1
 90
        0
176
     1
 90
        0
176
     1
290
     0
176
     1
 90
       13
176
     1
 40
0.0
176
     1
 90
        0
176
     1
290
     0
176
     1
290
     1
176
     1
290
     1
176
     1
290
     0
176
     1
290
     0
176
     1
290
     0
176
     1
290
     0
176
     1
290
     0
176
     1
290
     0
176
     1
 90
       50
176
     1
 40
0.0
176
     1
 40
1.0
176
     1
 90
        0
176
     1
 62
    18
420
        0
176
     1
 90
       50
176
     1
 90
        3
176
     1
 62
     5
420
      255
176
     1
290
     0
176
     1
 90
       50
176
     1
 90
       50
176
     1
 90
       50
176
     1
290
     0
176
     1
 90
       50
176
     1
 62
   256
176
     0
 40
1.0
176
     0
 90
        2
176
     1
  1
strokes_ogs.tif
176
     1
290
     0
176
     1
 40
1.0
176
     1
 40
1.0
176
     1
1001
ACAD
1000
AcDbSavedByObjectVersion
1070
     0
  0
VISUALSTYLE
  5
3E
102
{ACAD_REACTORS
330
29
102
}
330
29
100
AcDbVisualStyle
  2
Shaded
 70
    27
177
     3
291
     0
 70
    58
 90
        2
176
     1
 90
        2
176
     1
 90
        1
176
     1
 90
        2
176
     1
 40
0.6
176
     1
 40
30.0
176
     1
 62
     7
420
 16777215
176
     1
 90
        0
176
     1
 90
        4
176
     1
 62
     7
176
     1
 62
   257
176
     1
 90
        1
176
     1
 90
        1
176
     1
 40
1.0
176
     1
 90
        8
176
     1
 62
   257
176
     1
 40
1.0
176
     1
 90
        1
176
     1
 90
        6
176
     1
 90
        2
176
     1
 62
     8
420
  7895160
176
     1
 90
        3
176
     1
 90
        0
176
     1
 90
        0
176
     1
290
     0
176
     1
 90
        5
176
     1
 40
0.0
176
     1
 90
        0
176
     1
290
     0
176
     1
290
     1
176
     1
290
     1
176
     1
290
     0
176
     1
290
     0
176
     1
290
     0
176
     1
290
     0
176
     1
290
     0
176
     1
290
     0
176
     1
 90
       50
176
     1
 40
0.0
176
     1
 40
1.0
176
     1
 90
        0
176
     1
 62
    18
420
        0
176
     1
 90
       50
176
     1
 90
        3
176
     1
 62
     5
420
      255
176
     1
290
     0
176
     1
 90
       50
176
     1
 90
       50
176
     1
 90
       50
176
     1
290
     0
176
     1
 90
       50
176
     1
 62
   256
176
     0
 40
1.0
176
     0
 90
        2
176
     1
  1
strokes_ogs.tif
176
     1
290
     0
176
     1
 40
1.0
176
     1
 40
1.0
176
     1
1001
ACAD
1000
AcDbSavedByObjectVersion
1070
     0
  0
VISUALSTYLE
  5
3D
102
{ACAD_REACTORS
330
29
102
}
330
29
100
AcDbVisualStyle
  2
Shaded with edges
 70
    26
177
     3
291
     0
 70
    58
 90
        2
176
     1
 90
        2
176
     1
 90
        1
176
     1
 90
        2
176
     1
 40
0.6
176
     1
 40
30.0
176
     1
 62
     7
420
 16777215
176
     1
 90
        1
176
     1
 90
        2
176
     1
 62
     7
176
     1
 62
   257
176
     1
 90
        2
176
     1
 90
        1
176
     1
 40
1.0
176
     1
 90
        8
176
     1
 62
   257
176
     1
 40
1.0
176
     1
 90
        1
176
     1
 90
        6
176
     1
 90
        2
176
     1
 62
     7
176
     1
 90
        3
176
     1
 90
        0
176
     1
 90
        0
176
     1
290
     0
176
     1
 90
        5
176
     1
 40
0.0
176
     1
 90
        0
176
     1
290
     0
176
     1
290
     1
176
     1
290
     1
176
     1
290
     0
176
     1
290
     0
176
     1
290
     0
176
     1
290
     0
176
     1
290
     0
176
     1
290
     0
176
     1
 90
       50
176
     1
 40
0.0
176
     1
 40
1.0
176
     1
 90
        0
176
     1
 62
    18
420
        0
176
     1
 90
       50
176
     1
 90
        3
176
     1
 62
     5
420
      255
176
     1
290
     0
176
     1
 90
       50
176
     1
 90
       50
176
     1
 90
       50
176
     1
290
     0
176
     1
 90
       50
176
     1
 62
   256
176
     0
 40
1.0
176
     0
 90
        2
176
     1
  1
strokes_ogs.tif
176
     1
290
     0
176
     1
 40
1.0
176
     1
 40
1.0
176
     1
1001
ACAD
1000
AcDbSavedByObjectVersion
1070
     0
  0
VISUALSTYLE
  5
3A
102
{ACAD_REACTORS
330
29
102
}
330
29
100
AcDbVisualStyle
  2
Shades of Gray
 70
    23
177
     3
291
     0
 70
    58
 90
        2
176
     1
 90
        2
176
     1
 90
        3
176
     1
 90
        0
176
     1
 40
0.6
176
     1
 40
30.0
176
     1
 62
     7
420
 16777215
176
     1
 90
        2
176
     1
 90
        2
176
     1
 62
     7
176
     1
 62
     7
176
     1
 90
        1
176
     1
 90
        1
176
     1
 40
40.0
176
     1
 90
        8
176
     1
 62
     7
176
     1
 40
1.0
176
     1
 90
        1
176
     1
 90
        6
176
     1
 90
        2
176
     1
 62
     7
176
     1
 90
        3
176
     1
 90
        0
176
     1
 90
        0
176
     1
290
     0
176
     1
 90
        1
176
     1
 40
0.0
176
     1
 90
        0
176
     1
290
     0
176
     1
290
     1
176
     1
290
     1
176
     1
290
     0
176
     1
290
     0
176
     1
290
     0
176
     1
290
     0
176
     1
290
     0
176
     1
290
     0
176
     1
 90
       50
176
     1
 40
0.0
176
     1
 40
1.0
176
     1
 90
        0
176
     1
 62
    18
420
        0
176
     1
 90
       50
176
     1
 90
        3
176
     1
 62
     5
420
      255
176
     1
290
     0
176
     1
 90
       50
176
     1
 90
       50
176
     1
 90
       50
176
     1
290
     0
176
     1
 90
       50
176
     1
 62
   256
176
     0
 40
1.0
176
     0
 90
        2
176
     1
  1
strokes_ogs.tif
176
     1
290
     0
176
     1
 40
1.0
176
     1
 40
1.0
176
     1
1001
ACAD
1000
AcDbSavedByObjectVersion
1070
     0
  0
VISUALSTYLE
  5
3B
102
{ACAD_REACTORS
330
29
102
}
330
29
100
AcDbVisualStyle
  2
Sketchy
 70
    24
177
     3
291
     0
 70
    58
 90
        1
176
     1
 90
        2
176
     1
 90
        2
176
     1
 90
        0
176
     1
 40
0.6
176
     1
 40
30.0
176
     1
 62
     7
420
 16777215
176
     1
 90
        2
176
     1
 90
        2
176
     1
 62
     7
176
     1
 62
     7
176
     1
 90
        1
176
     1
 90
        1
176
     1
 40
40.0
176
     1
 90
       11
176
     1
 62
     7
176
     1
 40
1.0
176
     1
 90
        1
176
     1
 90
        6
176
     1
 90
        2
176
     1
 62
     7
176
     1
 90
        6
176
     1
 90
        0
176
     1
 90
        0
176
     1
290
     0
176
     1
 90
        1
176
     1
 40
0.0
176
     1
 90
        0
176
     1
290
     0
176
     1
290
     1
176
     1
290
     1
176
     1
290
     0
176
     1
290
     0
176
     1
290
     0
176
     1
290
     0
176
     1
290
     0
176
     1
290
     0
176
     1
 90
       50
176
     1
 40
0.0
176
     1
 40
1.0
176
     1
 90
        0
176
     1
 62
    18
420
        0
176
     1
 90
       50
176
     1
 90
        3
176
     1
 62
     5
420
      255
176
     1
290
     0
176
     1
 90
       50
176
     1
 90
       50
176
     1
 90
       50
176
     1
290
     0
176
     1
 90
       50
176
     1
 62
   256
176
     0
 40
1.0
176
     0
 90
        2
176
     1
  1
strokes_ogs.tif
176
     1
290
     0
176
     1
 40
1.0
176
     1
 40
1.0
176
     1
1001
ACAD
1000
AcDbSavedByObjectVersion
1070
     0
  0
VISUALSTYLE
  5
36
102
{ACAD_REACTORS
330
29
102
}
330
29
100
AcDbVisualStyle
  2
Thicken
 70
    13
177
     3
291
     1
 70
    58
 90
        2
176
     1
 90
        2
176
     1
 90
        0
176
     1
 90
        0
176
     1
 40
0.6
176
     1
 40
30.0
176
     1
 62
     7
420
 16777215
176
     1
 90
        1
176
     1
 90
        4
176
     1
 62
     7
176
     1
 62
   257
176
     1
 90
        1
176
     1
 90
        1
176
     1
 40
1.0
176
     1
 90
       12
176
     1
 62
     7
176
     1
 40
1.0
176
     1
 90
        1
176
     1
 90
        6
176
     1
 90
        2
176
     1
 62
     7
176
     1
 90
        5
176
     1
 90
        0
176
     1
 90
        0
176
     1
290
     0
176
     1
 90
        1
176
     1
 40
0.0
176
     1
 90
        0
176
     1
290
     0
176
     1
290
     1
176
     1
290
     1
176
     1
290
     0
176
     1
290
     0
176
     1
290
     0
176
     1
290
     0
176
     1
290
     0
176
     1
290
     0
176
     1
 90
       50
176
     1
 40
0.0
176
     1
 40
1.0
176
     1
 90
        0
176
     1
 62
    18
420
        0
176
     1
 90
       50
176
     1
 90
        3
176
     1
 62
     5
420
      255
176
     1
290
     0
176
     1
 90
       50
176
     1
 90
       50
176
     1
 90
       50
176
     1
290
     0
176
     1
 90
       50
176
     1
 62
   256
176
     0
 40
1.0
176
     0
 90
        2
176
     1
  1
strokes_ogs.tif
176
     1
290
     0
176
     1
 40
1.0
176
     1
 40
1.0
176
     1
1001
ACAD
1000
AcDbSavedByObjectVersion
1070
     0
  0
VISUALSTYLE
  5
30
102
{ACAD_REACTORS
330
29
102
}
330
29
100
AcDbVisualStyle
  2
Wireframe
 70
     5
177
     3
291
     0
 70
    58
 90
        0
176
     1
 90
        2
176
     1
 90
        0
176
     1
 90
        0
176
     1
 40
0.6
176
     1
 40
30.0
176
     1
 62
     7
420
 16777215
176
     1
 90
        1
176
     1
 90
        4
176
     1
 62
     7
176
     1
 62
   257
176
     1
 90
        1
176
     1
 90
        1
176
     1
 40
1.0
176
     1
 90
        0
176
     1
 62
   257
176
     1
 40
1.0
176
     1
 90
        1
176
     1
 90
        6
176
     1
 90
        2
176
     1
 62
     7
176
     1
 90
        3
176
     1
 90
        0
176
     1
 90
        0
176
     1
290
     0
176
     1
 90
        1
176
     1
 40
0.0
176
     1
 90
        0
176
     1
290
     0
176
     1
290
     1
176
     1
290
     1
176
     1
290
     0
176
     1
290
     0
176
     1
290
     0
176
     1
290
     0
176
     1
290
     0
176
     1
290
     0
176
     1
 90
       50
176
     1
 40
0.0
176
     1
 40
1.0
176
     1
 90
        0
176
     1
 62
    18
420
        0
176
     1
 90
       50
176
     1
 90
        3
176
     1
 62
     5
420
      255
176
     1
290
     0
176
     1
 90
       50
176
     1
 90
       50
176
     1
 90
       50
176
     1
290
     0
176
     1
 90
       50
176
     1
 62
   256
176
     0
 40
1.0
176
     0
 90
        2
176
     1
  1
strokes_ogs.tif
176
     1
290
     0
176
     1
 40
1.0
176
     1
 40
1.0
176
     1
1001
ACAD
1000
AcDbSavedByObjectVersion
1070
     0
  0
VISUALSTYLE
  5
3C
102
{ACAD_REACTORS
330
29
102
}
330
29
100
AcDbVisualStyle
  2
X-Ray
 70
    25
177
     3
291
     0
 70
    58
 90
        2
176
     1
 90
        2
176
     1
 90
        1
176
     1
 90
        1
176
     1
 40
0.5
176
     1
 40
30.0
176
     1
 62
     7
420
 16777215
176
     1
 90
        1
176
     1
 90
        0
176
     1
 62
     7
176
     1
 62
   257
176
     1
 90
        1
176
     1
 90
        1
176
     1
 40
1.0
176
     1
 90
        8
176
     1
 62
     7
176
     1
 40
1.0
176
     1
 90
        1
176
     1
 90
        6
176
     1
 90
        2
176
     1
 62
     7
176
     1
 90
        3
176
     1
 90
        0
176
     1
 90
        0
176
     1
290
     0
176
     1
 90
       13
176
     1
 40
0.0
176
     1
 90
        0
176
     1
290
     0
176
     1
290
     1
176
     1
290
     1
176
     1
290
     0
176
     1
290
     0
176
     1
290
     0
176
     1
290
     0
176
     1
290
     0
176
     1
290
     0
176
     1
 90
       50
176
     1
 40
0.0
176
     1
 40
1.0
176
     1
 90
        0
176
     1
 62
    18
420
        0
176
     1
 90
       50
176
     1
 90
        3
176
     1
 62
     5
420
      255
176
     1
290
     0
176
     1
 90
       50
176
     1
 90
       50
176
     1
 90
       50
176
     1
290
     0
176
     1
 90
       50
176
     1
 62
   256
176
     0
 40
1.0
176
     0
 90
        2
176
     1
  1
strokes_ogs.tif
176
     1
290
     0
176
     1
 40
1.0
176
     1
 40
1.0
176
     1
1001
ACAD
1000
AcDbSavedByObjectVersion
1070
     0
  0
DICTIONARYVAR
  5
7CD
102
{ACAD_REACTORS
330
7C8
102
}
330
7C8
100
DictionaryVariables
280
     0
  1
1:1
  0
DICTIONARYVAR
  5
7CA
102
{ACAD_REACTORS
330
7C8
102
}
330
7C8
100
DictionaryVariables
280
     0
  1
STANDARD
  0
DICTIONARYVAR
  5
7C9
102
{ACAD_REACTORS
330
7C8
102
}
330
7C8
100
DictionaryVariables
280
     0
  1
STANDARD
  0
DICTIONARYVAR
  5
7CB
102
{ACAD_REACTORS
330
7C8
102
}
330
7C8
100
DictionaryVariables
280
     0
  1
Imperial24
  0
DICTIONARYVAR
  5
7CC
102
{ACAD_REACTORS
330
7C8
102
}
330
7C8
100
DictionaryVariables
280
     0
  1
Imperial24
  0
DICTIONARY
  5
7D3
330
6B
100
AcDbDictionary
280
     1
281
     1
  3
ACAD_XREC_ROUNDTRIP
360
7D4
  0
DICTIONARY
  5
1A
330
19
100
AcDbDictionary
280
     1
281
     1
  3
BUMPTILE
360
1C
  3
DIFFUSETILE
360
1B
  3
OPACITYTILE
360
1F
  3
REFLECTIONTILE
360
1E
  3
REFRACTIONTILE
360
20
  3
SPECULARTILE
360
1D
  0
DICTIONARY
  5
12
330
11
100
AcDbDictionary
280
     1
281
     1
  3
BUMPTILE
360
14
  3
DIFFUSETILE
360
13
  3
OPACITYTILE
360
17
  3
REFLECTIONTILE
360
16
  3
REFRACTIONTILE
360
18
  3
SPECULARTILE
360
15
  0
DICTIONARY
  5
22
330
21
100
AcDbDictionary
280
     1
281
     1
  3
BUMPTILE
360
24
  3
DIFFUSETILE
360
23
  3
OPACITYTILE
360
27
  3
REFLECTIONTILE
360
26
  3
REFRACTIONTILE
360
28
  3
SPECULARTILE
360
25
  0
DICTIONARY
  5
7D1
330
69
100
AcDbDictionary
280
     1
281
     1
  3
ACAD_XREC_ROUNDTRIP
360
7D2
  0
DICTIONARY
  5
7CE
330
65
100
AcDbDictionary
280
     1
281
     1
  3
ACAD_ROUNDTRIP_2008_TABLESTYLE_CELLSTYLEMAP
360
7CF
  0
XRECORD
  5
7D4
102
{ACAD_REACTORS
330
7D3
102
}
330
7D3
100
AcDbXrecord
280
     1
102
DISPLAYNAME
  1
Imperial24
102
FLAGS
 90
        0
  0
XRECORD
  5
1C
102
{ACAD_REACTORS
330
1A
102
}
330
1A
100
AcDbXrecord
280
     1
270
     1
271
     1
  0
XRECORD
  5
1B
102
{ACAD_REACTORS
330
1A
102
}
330
1A
100
AcDbXrecord
280
     1
270
     1
271
     1
  0
XRECORD
  5
1F
102
{ACAD_REACTORS
330
1A
102
}
330
1A
100
AcDbXrecord
280
     1
270
     1
271
     1
  0
XRECORD
  5
1E
102
{ACAD_REACTORS
330
1A
102
}
330
1A
100
AcDbXrecord
280
     1
270
     1
271
     1
  0
XRECORD
  5
20
102
{ACAD_REACTORS
330
1A
102
}
330
1A
100
AcDbXrecord
280
     1
270
     1
271
     1
  0
XRECORD
  5
1D
102
{ACAD_REACTORS
330
1A
102
}
330
1A
100
AcDbXrecord
280
     1
270
     1
271
     1
  0
XRECORD
  5
14
102
{ACAD_REACTORS
330
12
102
}
330
12
100
AcDbXrecord
280
     1
270
     1
271
     1
  0
XRECORD
  5
13
102
{ACAD_REACTORS
330
12
102
}
330
12
100
AcDbXrecord
280
     1
270
     1
271
     1
  0
XRECORD
  5
17
102
{ACAD_REACTORS
330
12
102
}
330
12
100
AcDbXrecord
280
     1
270
     1
271
     1
  0
XRECORD
  5
16
102
{ACAD_REACTORS
330
12
102
}
330
12
100
AcDbXrecord
280
     1
270
     1
271
     1
  0
XRECORD
  5
18
102
{ACAD_REACTORS
330
12
102
}
330
12
100
AcDbXrecord
280
     1
270
     1
271
     1
  0
XRECORD
  5
15
102
{ACAD_REACTORS
330
12
102
}
330
12
100
AcDbXrecord
280
     1
270
     1
271
     1
  0
XRECORD
  5
24
102
{ACAD_REACTORS
330
22
102
}
330
22
100
AcDbXrecord
280
     1
270
     1
271
     1
  0
XRECORD
  5
23
102
{ACAD_REACTORS
330
22
102
}
330
22
100
AcDbXrecord
280
     1
270
     1
271
     1
  0
XRECORD
  5
27
102
{ACAD_REACTORS
330
22
102
}
330
22
100
AcDbXrecord
280
     1
270
     1
271
     1
  0
XRECORD
  5
26
102
{ACAD_REACTORS
330
22
102
}
330
22
100
AcDbXrecord
280
     1
270
     1
271
     1
  0
XRECORD
  5
28
102
{ACAD_REACTORS
330
22
102
}
330
22
100
AcDbXrecord
280
     1
270
     1
271
     1
  0
XRECORD
  5
25
102
{ACAD_REACTORS
330
22
102
}
330
22
100
AcDbXrecord
280
     1
270
     1
271
     1
  0
XRECORD
  5
7D2
102
{ACAD_REACTORS
330
7D1
102
}
330
7D1
100
AcDbXrecord
280
     1
102
DISPLAYNAME
  1
Imperial24
102
FLAGS
 90
        0
  0
CELLSTYLEMAP
  5
7CF
102
{ACAD_REACTORS
330
7CE
102
}
330
7CE
100
AcDbCellStyleMap
 90
        3
300
CELLSTYLE
  1
TABLEFORMAT_BEGIN
 90
        5
170
     1
 91
        0
 92
    32768
 62
   257
 93
        1
300
CONTENTFORMAT
  1
CONTENTFORMAT_BEGIN
 90
        0
 91
        0
 92
      512
 93
        0
300

 40
0.0
140
1.0
 94
        5
 62
     0
340
55
144
0.25
309
CONTENTFORMAT_END
171
     0
 94
        0
309
TABLEFORMAT_END
  1
CELLSTYLE_BEGIN
 90
        1
 91
        1
300
_TITLE
309
CELLSTYLE_END
300
CELLSTYLE
  1
TABLEFORMAT_BEGIN
 90
        5
170
     1
 91
        0
 92
        0
 62
   257
 93
        1
300
CONTENTFORMAT
  1
CONTENTFORMAT_BEGIN
 90
        0
 91
        0
 92
      512
 93
        0
300

 40
0.0
140
1.0
 94
        5
 62
     0
340
55
144
0.18
309
CONTENTFORMAT_END
171
     0
 94
        0
309
TABLEFORMAT_END
  1
CELLSTYLE_BEGIN
 90
        2
 91
        1
300
_HEADER
309
CELLSTYLE_END
300
CELLSTYLE
  1
TABLEFORMAT_BEGIN
 90
        5
170
     1
 91
        0
 92
        0
 62
   257
 93
        1
300
CONTENTFORMAT
  1
CONTENTFORMAT_BEGIN
 90
        0
 91
        0
 92
      512
 93
        0
300

 40
0.0
140
1.0
 94
        2
 62
     0
340
55
144
0.18
309
CONTENTFORMAT_END
171
     0
 94
        0
309
TABLEFORMAT_END
  1
CELLSTYLE_BEGIN
 90
        3
 91
        2
300
_DATA
309
CELLSTYLE_END
  0
ENDSEC
  0
EOF
